tab twoo!

(/) Slide Up  (\) Slide Down  (h) Hammer On  (p) Pull Off  (b) Bend (r) Release (v) Vibrato

(W|WW) Whole (H|HH) Half (Q|QQ) Quarter (E|EE) 8th (S|SS) 16th (T|TT) 32nd (X|XX) 64th


E|-----------------------------------------------------------------------------------
B|-----------------9---------------------9---------------------9------10------9------
G|-----------------9---------------------9---------------------9------9-------9------
D|--9--11--11--11-----11--9--11--11--11-----11--9--11--11--11-----11------11-----11--
A|-----------------------------------------------------------------------------------
E|-----------------------------------------------------------------------------------


t: none none none none none none none none none none none none none none none none none none none none none none none undefined undefined none
E|--|--|--|--|--|-----|--|--|--|--|--|-----|--|--|--|--|--|-----|--|-----|--|-----
B|--|--|--|--|--|-----|--|--|--|--|--|-----|--|--|--|--|--|-----|--|-----|--|-----
G|--|--|--|--|--|-----|--|--|--|--|--|-----|--|--|--|--|--|-----|--|--5--|--|-----
D|--|--|--|--|--|--2--|--|--|--|--|--|--2--|--|--|--|--|--|--2--|--|--5--|--|--5--
A|--|--|--|--|--|--2--|--|--|--|--|--|--2--|--|--|--|--|--|--2--|--|--3--|--|--5--
E|--|--|--|--|--|--0--|--|--|--|--|--|--0--|--|--|--|--|--|--0--|--|-----|--|--3--
http://www.guitartabcreator.com
Guitar Tab Creator is intended to store guitar tab created through the tool. It currently does not support in-line text editing. Any text you place in here will be lost. If you need to comment on your tab, please use the "Tab Notes" section located below.