41234123512315462345154345123412351234

(/) Slide Up  (\) Slide Down  (h) Hammer On  (p) Pull Off  (b) Bend (r) Release (v) Vibrato

E|-------------------------2-2-----------------0---2-3-3---------------0-------1---
B|-------------------------3-3-------0-1-3-3---------------0---1-3-3-3---0-3-1-1---
G|-------------------------3-3-3---0-------------------------------------------1---
D|-------------------------------0-------------------0-1-----------------------1---
A|---2-3-4-5-3-1/2-----------------------0-1-2---3-------3-------0-1-2---3---1-1---
E|-5---------------5-2-1-1---------5-------------------------5---------------------



E|-------------------------
B|-----0--3-----0----------
G|-----------0-----2-------
D|--------------------2/4--
A|-----------------0--3-5--
E|--0--5--3--2--1----------
http://www.guitartabcreator.com
Guitar Tab Creator is intended to store guitar tab created through the tool. It currently does not support in-line text editing. Any text you place in here will be lost. If you need to comment on your tab, please use the "Tab Notes" section located below.