Mindgames pt.2 piano

(/) Slide Up  (\) Slide Down  (h) Hammer On  (p) Pull Off  (b) Bend (r) Release (v) Vibrato


E|-------------8----7------10-
B|-8----8-------------10-8----
G|-9----7h9-------------------
D|-10-------10---10-----------
A|----------------------------
E|----------------------------



E|---------------------------------------------
B|-8---12-13-12----------10--------------------
G|-9---12----12-12-12-12----12-10-10-9-10p9-9--
D|-10--10----10-----------------------------10-
A|---------------------------------------------
E|---------------------------------------------



E|---------------------------------------------------------------------------------
B|-13----12----10-------------------------------------------------------------13---
G|----------------12-14----12----10----12----14----12-10---------------------------
D|----10----10----------10----10----10----10----10-------10-14-10-12-10-12-10------
A|---------------------------------------------------------------------------------
E|---------------------------------------------------------------------------------



E|---------------------------------------------12----
B|-12-12-13---13-15-13-------12--------13------------
G|---------------------14-14----14-12-----12------12-
D|---------------------------------------------------
A|---------------------------------------------------
E|---------------------------------------------------
http://www.guitartabcreator.com
Guitar Tab Creator is intended to store guitar tab created through the tool. It currently does not support in-line text editing. Any text you place in here will be lost. If you need to comment on your tab, please use the "Tab Notes" section located below.