guitar solo

(/) Slide Up  (\) Slide Down  (h) Hammer On  (p) Pull Off  (b) Bend (r) Release (v) Vibrato


E|--------------------------------------------------------------------------------
B|--------------------------------------------------------------------------------
G|--------------------------------------------------------------------------------
D|--------7-----7--9--7--9--7-----7--------------------------------7-----7--9-----
A|--7--9-----9-----------------9-----9--7-------------7------7--9-----9--------9--
E|-----------------------------------------10--7--10-----10-----------------------



E|----------------------------------------------------------------------------------------------
B|--------------------------------------------------------------------7-----7--10--7--10--7-----
G|--------------------------------------7-----7--9--7--9--7-----7--9-----9-------------------9--
D|--------7-----7--9--7--9--7-----7--9-----9-----------------9----------------------------------
A|--7--9-----9-----------------9----------------------------------------------------------------
E|----------------------------------------------------------------------------------------------



E|---------7------10--7------7---------
B|--7--10-----10---------10-----10b12--
G|-------------------------------------
D|-------------------------------------
A|-------------------------------------
E|-------------------------------------



E|--------------------------------------------------------------
B|--10b12r10--7--10---------------------------------7-----------
G|-------------------9b11r9--7--9b11r9--7-----7--9-----9--7-----
D|-----------------------------------------9-----------------9--
A|--------------------------------------------------------------
E|--------------------------------------------------------------



E|------------------------------------------------------10-----------
B|----------------------------7----------------------7------7--------
G|--------7-----9b11r9--7--9-----9--9b11r9--7------------------9--7--
D|--7--9-----9---------------------------------9--7------------------
A|-------------------------------------------------------------------
E|-------------------------------------------------------------------



E|-------------------------------------------------------------------------------------------
B|--10--7-----10--7----------10--7-----10--7----------10--10--7-----7------------------------
G|---------9---------9b11r9---------9---------9b11r9-------------9-----7---------------------
D|------------------------------------------------------------------------9--7---------------
A|------------------------------------------------------------------------------9--7---------
E|------------------------------------------------------------------------------------10--7--
http://www.guitartabcreator.com
Guitar Tab Creator is intended to store guitar tab created through the tool. It currently does not support in-line text editing. Any text you place in here will be lost. If you need to comment on your tab, please use the "Tab Notes" section located below.