5/4 Riff- each line is guitar

(/) Slide Up  (\) Slide Down  (h) Hammer On  (p) Pull Off  (b) Bend (r) Release (v) Vibrato

E|-------------------------------------------------------------------------------------------
B|-------------------------------------------------------------------------------------------
G|-------------------------------------------------------------------------------------------
D|-------------------------------------------------------------------------------------------
A|-----------------------------------------------------------------------5-5-5-5-5-5-5-5-5-5-
E|-3-3-3-3-3-5-5-5-5-5-7-7-7-7-7-8-8-8-8-8-7-7-7-7-7-5-5-5-5-5-3-3-3-3-3---------------------



E|-3---0---2---0---2---0----------3---2---3---3/5-
B|-0---1---3---1---3---1----------0---3---3---3-5-
G|-0---2---4---0---4---2----------0---2---2-------
D|-0---2---4---2---4---2----------0---0---0-------
A|-2---0---2---3---2---0--2p0-----2---------------
E|-3--------------------------3-3-3---------------



E|--------------------------------------
B|-3---5---7---8----7---5---3---10---12-
G|-4---5---7---9----7---5---4---11---12-
D|-5---7---9---10---9---7---5---12---12-
A|-5---7---9---10---9---7---5---12------
E|--------------------------------------



E|----
B|----
G|-12-
D|----
A|----
E|----



E|-7-
B|-8-
G|-7-
D|-7-
A|---
E|---



E|--------------------------5--7--------------------------5--7-----------------5--7--5-----------------------------5--7--8-----------------
B|-----------------5--7--8-----------------------5--7--8-----------------5--8-----------8--5--------------5--7--8-----------------------5--
G|--------4--5--7-----------------------4--5--7--------------------4--7--------------------------4--5--7-----------------------4--5--7-----
D|--5--7--------------------------5--7--------------------------5-----------------------------5-----------------------------5--------------
A|-----------------------------------------------------------------------------------------------------------------------------------------
E|-----------------------------------------------------------------------------------------------------------------------------------------
http://www.guitartabcreator.com
Guitar Tab Creator is intended to store guitar tab created through the tool. It currently does not support in-line text editing. Any text you place in here will be lost. If you need to comment on your tab, please use the "Tab Notes" section located below.