Silent Night Open D

(/) Slide Up  (\) Slide Down  (h) Hammer On  (p) Pull Off  (b) Bend (r) Release (v) Vibrato


E|-----7-----9-----7-----|-----4---------------|-----7-----9-----7-----|-----4----------|-----
B|-----------------------|---------------------|-----------------------|----------------|-----
G|-----------------------|---------------------|-----------------------|----------------|-----
D|-----------------------|---------------------|-----------------------|----------------|-----
A|-----------------------|---------------------|-----------------------|----------------|-----
E|-----------------------|---------------------|-----------------------|----------------|-----



E|-----14-----14-----|-----11---------------|-----12-----12----------|-----7----------|-----
B|-------------------|----------------------|------------------------|----------------|-----
G|-------------------|----------------------|------------------------|----------------|-----
D|-------------------|----------------------|------------------------|----------------|-----
A|-------------------|----------------------|------------------------|----------------|-----
E|-------------------|----------------------|------------------------|----------------|-----



E|-----9-----9-----|-----12-----11-----9-----|-----7-----9-----7-----|-----4----------|-----
B|-----------------|-------------------------|-----------------------|----------------|-----
G|-----------------|-------------------------|-----------------------|----------------|-----
D|-----------------|-------------------------|-----------------------|----------------|-----
A|-----------------|-------------------------|-----------------------|----------------|-----
E|-----------------|-------------------------|-----------------------|----------------|-----



E|-----9-----9-----|-----12-----11-----9-----|-----7-----9-----7-----|-----4----------|-----
B|-----------------|-------------------------|-----------------------|----------------|-----
G|-----------------|-------------------------|-----------------------|----------------|-----
D|-----------------|-------------------------|-----------------------|----------------|-----
A|-----------------|-------------------------|-----------------------|----------------|-----
E|-----------------|-------------------------|-----------------------|----------------|-----



E|-----14-----14-----|-----17-----14-----11-----|-----12----------|-----16----------|-----
B|-------------------|--------------------------|-----------------|-----------------|-----
G|-------------------|--------------------------|-----------------|-----------------|-----
D|-------------------|--------------------------|-----------------|-----------------|-----
A|-------------------|--------------------------|-----------------|-----------------|-----
E|-------------------|--------------------------|-----------------|-----------------|-----



E|-----12----------|-----7-----4-----7-----5-----|-----2-----0-----|-----12----------|-----
B|-----------------|-----------------------------|-----------------|-----------------|-----
G|-----------------|-----------------------------|-----------------|-----------------|-----
D|-----------------|-----------------------------|-----------------|-----------------|-----
A|-----------------|-----------------------------|-----------------|-----------------|-----
E|-----------------|-----------------------------|-----------------|-----------------|-----
http://www.guitartabcreator.com
Guitar Tab Creator is intended to store guitar tab created through the tool. It currently does not support in-line text editing. Any text you place in here will be lost. If you need to comment on your tab, please use the "Tab Notes" section located below.