Love is all (Roger Glover) Intro

(/) Slide Up  (\) Slide Down  (h) Hammer On  (p) Pull Off  (b) Bend (r) Release (v) Vibrato

E|--------------|--------------|--0--0--0--0--|--0--0--0--0--|--------------|--------------|--2--|--
B|--------------|--------------|--0--0--0--0--|--0--0--0--0--|--------------|--------------|--3--|--
G|--4--4--4--4--|--4--4--4--4--|--1--1--1--1--|--1--1--1--1--|--2--2--2--2--|--2--2--2--2--|--2--|--
D|--4--4--4--4--|--4--4--4--4--|--2--2--2--2--|--2--2--2--2--|--2--2--2--2--|--2--2--2--2--|--0--|--
A|--2--2--2--2--|--2--2--2--2--|--2--2--2--2--|--2--2--2--2--|--0--0--0--0--|--0--0--0--0--|-----|--
E|--------------|--------------|--0--0--0--0--|--0--0--0--0--|--------------|--------------|-----|--



E|--------------|--------------|--------------|--------------|--------------|--------------|-----|--
B|--------------|--------------|--------------|--------------|--------------|--------------|-----|--
G|--------------|--------------|--------------|--------------|--------------|--------------|-----|--
D|--------------|--------------|--2--2--0--0--|--------------|--------------|--------------|--0--|--
A|--2--2--0--0--|--------------|--------------|--4--4--2--2--|--0--0--------|--------------|-----|--
E|--------------|--4--4--2--2--|--------------|--------------|--------3--3--|--2--2--0--0--|-----|--



E|--------------|--------------|--------------|--------------|--------------|--------------|-----|--
B|--------------|--------------|--------------|--------------|--------------|--------------|-----|--
G|--4--2--1-----|--------1-----|--2--0--------|--------------|--0-----------|--------------|-----|--
D|-----------4--|--2--4-----2--|--------4--2--|--0--2--4--0--|-----3--2--0--|-----0--2-----|--0--|--
A|--------------|--------------|--------------|--------------|--------------|--3--------3--|-----|--
E|--------------|--------------|--------------|--------------|--------------|--------------|-----|--
http://www.guitartabcreator.com
Guitar Tab Creator is intended to store guitar tab created through the tool. It currently does not support in-line text editing. Any text you place in here will be lost. If you need to comment on your tab, please use the "Tab Notes" section located below.