Love is all (Roger Glover) Bass Verse and Chorus

(/) Slide Up  (\) Slide Down  (h) Hammer On  (p) Pull Off  (b) Bend (r) Release (v) Vibrato


E|--------------|--------------|--------------|------------|--------------|--------------
B|--------------|--------------|--------------|------------|--------------|--------------
G|--------------|--------------|--------------|------------|--------------|--------------
D|--------------|--------------|--------------|------------|--------------|--------------
A|--3--3--------|--0--0--------|--3--3--------|--0---------|--3--3--------|--0--0--------
E|--------3--3--|--------1--1--|--------3--3--|-------1----|--------3--3--|--------1--1--



E|--------------|--------------|--
B|--------------|--------------|--
G|--------------|--------------|--
D|--------------|--------------|--
A|--------------|--------------|--
E|--3--3--3--3--|--3--3--3--3--|--



E|--------------|--------------------------|--------------|--------------|--------------
B|--------------|--------------------------|--------------|--------------|--------------
G|--------------|--------------------------|--------------|--------------|--------------
D|--------------|--0--0--0--0--------------|--------------|--------------|--------------
A|--0--0--0--0--|--------------------------|--3--3--3--3--|--0--0--------|--------------
E|--------------|--------------3--3--3--3--|--------------|--------3--3--|--2--2--2--2--



E|--------------|---------------
B|--------------|---------------
G|--------------|---------------
D|--------------|---------------
A|--------------|--3--3--3------
E|--3--3--3--3--|---------------
http://www.guitartabcreator.com
Guitar Tab Creator is intended to store guitar tab created through the tool. It currently does not support in-line text editing. Any text you place in here will be lost. If you need to comment on your tab, please use the "Tab Notes" section located below.