new song(try out)

(/) Slide Up  (\) Slide Down  (h) Hammer On  (p) Pull Off  (b) Bend (r) Release (v) Vibrato

Stave 1:

E|------------------------------------------------------------------------------------
B|-----------3----------------3----------------3-----------3-----------0-----------0--
G|--------0-----0h2--------0-----0h2--------2-----------2-----------2-----------2-----
D|-----0----------------0----------------0-----------0-----------0-----------0--------
A|------------------------------------------------------------------------------------
E|--0----------------0----------------2-----------2-----------2-----------2-----------

Stave 2:

E|-----------2-----------2-----------3-----------3--------------
B|--------------------------------------------------------------
G|--------0-----------0-----------0-----------0-----------------
D|-----0-----------0-----------0-----------0--------------------
A|--------------------------------------------------------------
E|--2-----------2-----------3-----------3-----------------------

http://www.guitartabcreator.com
Guitar Tab Creator is intended to store guitar tab created through the tool. It currently does not support in-line text editing. Any text you place in here will be lost. If you need to comment on your tab, please use the "Tab Notes" section located below.