Halo Jumping

(/) Slide Up  (\) Slide Down  (h) Hammer On  (p) Pull Off  (b) Bend (r) Release (v) Vibrato

E|----------------------------------------------------------------------------------------------
B|----------------------------------------------------------------------------------------------
G|----------------------------------------------------------------------------------------------
D|--------12-----11--------9--7--6h7p6------------9--11--12--11--9------------------------------
A|--9--9------9------9--9---------------7--9--12--------------------12--------------------------
E|----------------------------------------------------------------------0--0--0--0--0--0--0--0--



E|-------------------------------------------------------------------
B|-------------------------------------------------------------------
G|-------------------------------------------------------------------
D|--------12-----11--------9--7--6h7p6------------------------9--11--
A|--9--9------9------9--9---------------7--9--0--9--0--9--11---------
E|-------------------------------------------------------------------



E|-----------------------------------------------------------------
B|-----------------------------------------------------------------
G|--------------------------9--9--9--9-----------------------------
D|--7--7--7--7--9--9--9--9--------------7--7--7--7--9--9--9--9--7--
A|-----------------------------------------------------------------
E|-----------------------------------------------------------------



E|--
B|--
G|--
D|--
A|--
E|--
http://www.guitartabcreator.com
Guitar Tab Creator is intended to store guitar tab created through the tool. It currently does not support in-line text editing. Any text you place in here will be lost. If you need to comment on your tab, please use the "Tab Notes" section located below.