The Effect

(/) Slide Up  (\) Slide Down  (h) Hammer On  (p) Pull Off  (b) Bend (r) Release (v) Vibrato


E|----------------------------------------------------------------------
B|----------------------------------------------------------------------
G|----------15--15/17----------15--15/17----------15--15h16p15----------
D|--15--18-------------15--18-------------15--18----------------18--15--
A|----------------------------------------------------------------------
E|----------------------------------------------------------------------



E|----------------------------------------------------------------------
B|--16/18--16--16/18--15h16p15------------------------------------------
G|------------------------------17--15--------------15/16----------15v--
D|--------------------------------------15--15--18---------15--18-------
A|----------------------------------------------------------------------
E|----------------------------------------------------------------------



E|--------------------------------
B|--------------------------------
G|----------15h17p15--------------
D|--15--18------------18--15v-----
A|--------------------------------
E|--------------------------------
http://www.guitartabcreator.com
Guitar Tab Creator is intended to store guitar tab created through the tool. It currently does not support in-line text editing. Any text you place in here will be lost. If you need to comment on your tab, please use the "Tab Notes" section located below.