They Might Be Giants - Hey, Mr. DJ, I Thought You Said We Had A Deal

(/) Slide Up  (\) Slide Down  (h) Hammer On  (p) Pull Off  (b) Bend (r) Release (v) Vibrato
E|----------------------------------------------------------------
B|----------------------------------------------------------------
G|-----2-------------------------------------------------------2--
D|--------2------0----0--0---------------2------0--0--0--2--4-----
A|--0-----------------------4--2--0-------------------------------
E|----------------------------------------------------------------



E|--------------------------------------------------------------------------
B|--------------------------------------------------------------------------
G|---2-----------------------------------2----------------------------------
D|-----2---0--0-0--------2---0-0-0---------2---0--0-0--0--------2--2-2--0---
A|-0--------------4-2-0------------4-2-0-----------------2--2-------------4-
E|--------------------------------------------------------------------------



E|---------------------------------------------------------------------------------------
B|---------------------------------------------------------------------------------------
G|---------------------------------------------------------------------------------------
D|-------2----0----0--2--4----3----0--0--0--2-------2----0------2--4----3----0--0--0--2--
A|--0------------------------------------------0-----------------------------------------
E|---------------------------------------------------------------------------------------



E|--------------------------------------------------------------------------------------------------------
B|--------------------------------------------------------------------------------------------------------
G|--------------------------------------------------------------------------------------------------------
D|--7-----------------------------------------------------------------------------------------------4--6--
A|--------7-----5-----5-----0-----7-----5-----5-----0-----7-----5-----5-----0-----7-----5-----5--7--------
E|-----5-----7-----5-----5-----0-----7-----5-----5-----0-----7-----5-----5-----0-----7-----5--------------



E|-----
B|-----
G|-----
D|--7--
A|-----
E|-----



E|-----------------------------------------------------------------------------------------------
B|-----------------------------------------------------------------------------------------------
G|-----2--1--2-----2--------2-----------------------------------------------------------1-----2--
D|--------------4-----2--2-----0-----2-----------2-----------2--------2--------2--4--------------
A|--0-----------------------------0-----0--4--0-----0--4--0-----0--------0--0--------0-----0-----
E|-----------------------------------------------------------------4-----------------------------
http://www.guitartabcreator.com
Guitar Tab Creator is intended to store guitar tab created through the tool. It currently does not support in-line text editing. Any text you place in here will be lost. If you need to comment on your tab, please use the "Tab Notes" section located below.