Cydney

(/) Slide Up  (\) Slide Down  (h) Hammer On  (p) Pull Off  (b) Bend (r) Release (v) Vibrato

E|-----------------------------------------------------------------------
B|-----------------------------------------------------------------------
G|--9--7--5------------9--7--5------------9--7--5------------9--7--5-----
D|--9--7--5--3--5------9--7--5--3--5------9--7--5--3--5------9--7--5-----
A|--7--5--3--3--5------7--5--3--3--5------7--5--3--3--5------7--5--3-----
E|-----------3--5---------------3--5---------------3--5------------------



E|--------------------------------------------------------------------------
B|--------------------------------------------------------------------------
G|--------------------------------------------------------------------------
D|--------------------------------------------------------------------------
A|--7--5--3------------7--5--3------------7--5--3------------7--5--3--------
E|-----------3--5---------------3--5---------------3--5---------------3--5--



E|--------------------------------------------------------------------------
B|--------------------------------------------------------------------------
G|--9--7--5------------9--7--5------------9--7--5------------9--7--5--------
D|--9--7--5--3--5------9--7--5--3--5------9--7--5--3--5------9--7--5--3--5--
A|--7--5--3--3--5------7--5--3--3--5------7--5--3--3--5------7--5--3--3--5--
E|-----------3--5---------------3--5---------------3--5---------------3--5--



E|-----------------------------------------------------
B|-----------------------------------------------------
G|-----------------------------------------------------
D|-----------------------------------------------------
A|--9------7------9--7--5------9------7------9--7--12--
E|--7------5------7--5--3------7------5------7--5--10--



E|-----------------------------------------------------------------------------------------
B|-----------------------------------------------------------------------------------------
G|-----------------------------------------------------------------------------------------
D|-----------------------------------------------------------------------------------------
A|--12--12--12--12--12--12--12--12--9----9----12--12--12--12--12--12--12--12--9----7----5--
E|--10--10--10--10--10--10--10--10--7----7----10--10--10--10--10--10--10--10--7----5----3--



E|--
B|--
G|--
D|--
A|--
E|--
http://www.guitartabcreator.com
Guitar Tab Creator is intended to store guitar tab created through the tool. It currently does not support in-line text editing. Any text you place in here will be lost. If you need to comment on your tab, please use the "Tab Notes" section located below.