Soulive

(/) Slide Up  (\) Slide Down  (h) Hammer On  (p) Pull Off  (b) Bend (r) Release (v) Vibrato

E|------------------------------------------------------------7--10------------------------------
B|--------8-----10b11-----10-----8------------8-----10b11------------8------------8-----10v--11--
G|--7--9-----9---------9------9---------7--9-----9---------9----------------7--9-----9-----------
D|-----------------------------------------------------------------------------------------------
A|-----------------------------------------------------------------------------------------------
E|-----------------------------------------------------------------------------------------------



E|---------------------------------------------------15------17b18--15----------15--17b18------
B|--------8----------8--10b11--10--8--8------15--17------17-------------15--17-----------------
G|--7--9-------7--9----------------------------------------------------------------------------
D|---------------------------------------------------------------------------------------------
A|---------------------------------------------------------------------------------------------
E|---------------------------------------------------------------------------------------------



E|----------15-----------------------------------------------------------------------------
B|--15--17------15/17--15--------------15b16-----------------------------------------------
G|-------------------------16--14--12---------14--12--12--12--14b15--12--14--14b15--14b15--
D|-----------------------------------------------------------------------------------------
A|-----------------------------------------------------------------------------------------
E|-----------------------------------------------------------------------------------------
Guitar Tab Creator is intended to store guitar tab created through the tool. It currently does not support in-line text editing. Any text you place in here will be lost. If you need to comment on your tab, please use the "Tab Notes" section located below.