Dynasty of Darkness - Frozen

(/) Slide Up  (\) Slide Down  (h) Hammer On  (p) Pull Off  (b) Bend (r) Release (v) Vibrato

Dynasty of Darkness
'Frozen'


Intro

E|--------------------------------------------------------------------------
B|-----------------------------------------------------------------------0--
G|--------0--------0--------0--------0--------0--------0--------0-----------
D|-----2--------2--------2--------2--------2--------2--------2--------2-----
A|--3--------3--------3--------3--------2--------2--------2--------2--------
E|--------------------------------------------------------------------------


E|---------------------------------------------------------------------------
B|---------------------------------------------------------------------------
G|---------------------------------------------------------------------------
D|---------------------------------------------------------------------------
A|--333666555333222555666222-------------------------------------------------
E|--333333333444333333444333-------------------------------------------------

Bridge I

E|--------------------------------------------------------------------------
B|--------------------------------------------------------------------------
G|--------------------------------------------------------------------------
D|-------------------------------------------------------------------------- gtr.1
A|--33333333666666665555555666555333222222225555555566666666----------------
E|----------------------------------------------------------3333333---------


E|--------------------------------------------------------------------------
B|--------------------------------------------------------------------------
G|--------------------------------------------------------------------------
D|--55555555558888888877777777888777555444444777777888888------------------- gtr.2
A|-------------------------------------------------------55555555555--------
E|--------------------------------------------------------------------------


Verse

E|-----------------------------------------------------------------------------
B|-----------------------------------------------------------------------------
G|----------------------------------------------------------45444--------------
D|----------------------------------------------------------33333--------------
A|--333333333333(b)444444444333333333(b)4333333332222222222-22222--------------
E|-----------------------------------------------------------------------------

Pre-Chorus

E|----------------------------------------------------------------------------
B|--------------888-----------------------------------------------------------
G|--------555888---888777555444---------------------666-----------------------
D|-----555---------------------555444---------444777---777666444333-----------
A|--333------------------------------333---444---------------------444333-----
E|--------------------------------------222------------------------------222--

Chorus

E|------------------------------------------------2--------------------------
B|-----4-----4-----------2-----4-----4-------------2-------------------------
G|----5-5---5-5----2------2---5-5---5-5-----2-------2------------------------
D|---5---5-5---5--4-4---4--4-5---5-5---5---4-4---4---------------------------
A|--3-----3------4---4-4----3-----3-------4---4-4----------------------------
E|--------------2-----2------------------2-----2-----------------------------

Bridge II

E|-------------------------------------------------------------------------
B|-------------------------------------------------------------------------
G|-------------------------------------------------------------------------
D|-------------------------------------------------------------------------
A|-------------------------------------------------------------------------
E|--88888888(b)98(b)98(b)98(b)98888822222222222222222222-------------------

Pre-Chorus

E|----------------------------------------------------------------------------
B|--------------888-----------------------------------------------------------
G|--------555888---888777555444---------------------666-----------------------
D|-----555---------------------555444---------444777---777666444333-----------
A|--333------------------------------333---444---------------------444333-----
E|--------------------------------------222------------------------------222--

E|----------------------------------------------------------------------------
B|----------------------------------------------------------------------------
G|----------------------------------------------------------------------------
D|----------------------------------------------------------------------------
A|--333666555333222555666222--------------------------------------------------
E|--333333333444333333444333--------------------------------------------------

Bridge I

E|--------------------------------------------------------------------------
B|--------------------------------------------------------------------------
G|--------------------------------------------------------------------------
D|-------------------------------------------------------------------------- gtr.1
A|--33333333666666665555555666555333222222225555555566666666----------------
E|----------------------------------------------------------3333333---------


E|-------------------------------------------------------------------------
B|-------------------------------------------------------------------------
G|-------------------------------------------------------------------------
D|--55555555558888888877777777888777555444444777777888888------------------ gtr.2
A|-------------------------------------------------------55555555555-------
E|-------------------------------------------------------------------------

Verse II

E|-------------------------------------------------------------------------------
B|-------------------------------------------------------------------------------
G|----------------------------------------------------------45444----------------
D|----------------------------------------------------------33333----------------
A|--333333333333(b)444444444333333333(b)4333333332222222222-22222----------------
E|-------------------------------------------------------------------------------

Outro

E|--------------------------------------------------------------------------------
B|--------------------------------------------------------------------------------
G|--------------------------------------------------------------------------------
D|--------------------------------------------------------------------------------
A|--333666555333222555666222------------------------------------------------------
E|--333333333444333333444333------------------------------------------------------


http://www.dynastyofdarkness.com
Guitar Tab Creator is intended to store guitar tab created through the tool. It currently does not support in-line text editing. Any text you place in here will be lost. If you need to comment on your tab, please use the "Tab Notes" section located below.