Dynasty of Darkness - Diuum Deus

((/) Slide Up  (\) Slide Down  (h) Hammer On  (p) Pull Off  (b) Bend (r) Release (v) Vibrato

Itro

E|-------------------------------------------------------------------------
B|-------------------------------------------------------------------------
G|-------------------------------------------------------------------------
D|-------------------------------------------------------------------------
A|-------------------------------------------------------------------------
E|--4-1-00--4-1-00-4-1-00--4-1-00--4-1-00--4-1-00--4-1-00--4-1-00----------


Verse
Gtr.1

E|--------------------------------------------------------------------------------------------
B|--------------------------------------------------------------------------------------------
G|--------------------------------------------------------------------------------------------
D|--------------------------------------------------------------------------------------------
A|--555555555555(b)666666666555555555(b)666666---------------------------------------333333333
E|--------------------------------------------55555444333333333344444(b)5554444333333---------

Gtr.2

E|----------------------------------------------------------------------------------------------
B|----------------------------------------------------------------------------------------------
G|----------------------------------------------------------------------------------------------
D|--777777777777(b)8888888888777777777(b)88888--------------------------------------------------
A|---------------------------------------------77777666666655555566666(b)77777766666655555/99999
E|----------------------------------------------------------------------------------------------


Bridge I

E|-------------------------------------------------------------------------
B|-------------------------------------------------------------------------
G|-------------------------------------------------------------------------
D|-------------------------------------------------------------------------
A|-------------------------8-11-----------------------8-11-----------------
E|--10-000-6-000-1-000-7-10----10-000-6-000-1-000-7-10---------------------

Gtr.1

E|--------------------------------------------------------------------------------------------
B|--------------------------------------------------------------------------------------------
G|--------------------------------------------------------------------------------------------
D|--------------------------------------------------------------------------------------------
A|--555555555555(b)666666666555555555(b)666666---------------------------------------333333333
E|--------------------------------------------55555444333333333344444(b)5554444333333---------

Gtr.2

E|----------------------------------------------------------------------------------------------
B|----------------------------------------------------------------------------------------------
G|----------------------------------------------------------------------------------------------
D|--777777777777(b)8888888888777777777(b)88888--------------------------------------------------
A|---------------------------------------------77777666666655555566666(b)77777766666655555/99999
E|----------------------------------------------------------------------------------------------


Bridge I

E|-------------------------------------------------------------------------
B|-------------------------------------------------------------------------
G|-------------------------------------------------------------------------
D|------------------------------------------------------------------------- x2
A|-------------------------8-11-----------------------8-11-----------------
E|--10-000-6-000-1-000-7-10----10-000-6-000-1-000-7-10---------------------

Bridge Pt.2
Palm Mute

E|-------------------------------------------------------------------------
B|-------------------------------------------------------------------------
G|-------------------------------------------------------------------------
D|------------------------------------------------------------------------- x2
A|-------------------------11-----------------------8----------------------
E|--10-000-6-000-1-000-7/10--10-000-6-000-1-000-7/10-----------------------

(PM)

E|-------------------------------------------------------------------------
B|-------------------------------------------------------------------------
G|-------------------------------------------------------------------------
D|------------------------------------------------------------------------- x2
A|-------------------------------------------------------------------------
E|--5555555555555(b)666666666664/55555555555544444444444444----------------


Verse
Gtr.1

E|--------------------------------------------------------------------------------------------
B|--------------------------------------------------------------------------------------------
G|--------------------------------------------------------------------------------------------
D|--------------------------------------------------------------------------------------------
A|--555555555555(b)666666666555555555(b)666666---------------------------------------333333333
E|--------------------------------------------55555444333333333344444(b)5554444333333---------

Gtr.2

E|----------------------------------------------------------------------------------------------
B|----------------------------------------------------------------------------------------------
G|----------------------------------------------------------------------------------------------
D|--777777777777(b)8888888888777777777(b)88888--------------------------------------------------
A|---------------------------------------------77777666666655555566666(b)77777766666655555/99999
E|----------------------------------------------------------------------------------------------


Bridge II

E|-------------------------------------------------------------------------
B|-------------------------------------------------------------------------
G|-------------------------------------------------------------------------
D|------------------------------------------------------------------------- x8
A|--43203210---------43203210---------43203210---------43203210------------
E|----------543254321--------543254321--------543254321--------43203210----


Chorus

E|-----------7-----7-----8-----------------7-----7-----6-------------------
B|------7(h)8-7-----7-----8-----------7(h)8-7-----7-----6------------------
G|-----7-------7-----7-----8---------7-------7-----7-----6-----------------
D|----9---------9-----9-----10------9---------9-----9-----8---------------- x2
A|---9-----------9-----9------10---9-----------9-----9-----8---------------
E|--7-------------7-----7-------8-7-------------7-----7-----6--------------

Chorus Pt.2

E|---------------------------------------------------------------------------------------
B|---------------------------------------------------------------------------------------
G|---------------------------------------------------------------------------------------
D|-------99999999999999/(10)10101010101010101010/99999999999/101010999988888888888------- x2
A|-------99999999999999/(10)10101010101010101010/99999999999/101010999988888888888-------
E|--77777--------------------------------------------------------------------------------


Bridge III (3 bars pt1. 2 bars pt.2)

Pt.1

E|-----------------------------------------------------------------------------------------------
B|-----------------------------------------------------------------------------------------------
G|-----------------------------------------------------------------------------------------------
D|-----------------------------------------------------------------------------------------------
A|-----------------999999999----------------------(10)10101010101099991010109999-----------888888
E|--777777788888888---------888888887777777788888888----------------------------66666677777------


(continuation.. thrills)

E|-------------------------------------------------------------------------
B|-------------------------------------------------------------------------
G|-------------------------------------------------------------------------
D|-------------------------------------------------------------------------
A|-------------------7(h)8(p)7(h)8-----------------------------------------
E|--77777766666777777-------------7(h)8(p)7(h)8-6(h)7(p)6(h)7-7(h)8(p)7(h)8


(continuation)

E|--------------------------------------------------------------------------------
B|--------------------------------------------------------------------------------
G|--------------------------------------------------------------------------------
D|--------------------------------------------------------------------------------
A|--999999999----------------------(10)10101010101099991010109999-----------888888
E|-----------888888887777777788888888----------------------------66666677777------


E|-------------------------------------------------------------------------
B|-------------------------------------------------------------------------
G|-------------------------------------------------------------------------
D|------------------------------------------------------------------------- x 3
A|-------------------7(h)8(p)7(h)8-----------------------------------------
E|--77777766666777777-------------7(h)8(p)7(h)8-6(h)7(p)6(h)7-7(h)8(p)7(h)8

Pt.2 (on 4th and 5th bar) Ending x 2

E|-----------------------------------------------------------------------------------------------
B|-----------------------------------------------------------------------------------------------
G|-----------------------------------------------------------------------------------------------
D|-----------------------------------------------------------------------------------------------
A|-----------------999999999----------------------(10)10101010101099991010109999888888-----888888
E|--777777788888888---------888888887777777788888888----------------------------------99999------

E|-----------------------------------------------------------------------------------------------
B|-----------------------------------------------------------------------------------------------
G|-----------------------------------------------------------------------------------------------
D|-----------------------------------------------------------------------------------------------
A|---8-8-7(h)8(p)7(h)8(p)7-----------------------------------------------------------------------
E|------------------------8(h)9(p)8(h)9/7(h)8(p)7(h)8/8(h)9(p)8(h)9------------------------------


Chorus

E|-----------7-----7-----8-----------------7-----7-----6-------------------
B|------7(h)8-7-----7-----8-----------7(h)8-7-----7-----6------------------
G|-----7-------7-----7-----8---------7-------7-----7-----6-----------------
D|----9---------9-----9-----10------9---------9-----9-----8---------------- x 2
A|---9-----------9-----9------10---9-----------9-----9-----8---------------
E|--7-------------7-----7-------8-7-------------7-----7-----6--------------

(PM)

E|---------------------------------------------------------------------------------------
B|---------------------------------------------------------------------------------------
G|---------------------------------------------------------------------------------------
D|-------99999999999999/(10)10101010101010101010/99999999999/101010999988888888888------- x2
A|-------99999999999999/(10)10101010101010101010/99999999999/101010999988888888888-------
E|--77777--------------------------------------------------------------------------------


E|-----------------------------------------------------------------------------------------------
B|-----------------------------------------------------------------------------------------------
G|-----------------------------------------------------------------------------------------------
D|--9-10-10-10-9-8-8-8-8------999999999999999(10)1010101010101010199999999(10)10101099999888888--
A|--9-10-10-10-9-8-8-8-8------999999999999999(10)1010101010101010199999999(10)10101099999888888--
E|--7-8--8--8--7-6-6-6-6-77777-------------------------------------------------------------------


VERSE
Gtr.1

E|--------------------------------------------------------------------------------------------
B|--------------------------------------------------------------------------------------------
G|--------------------------------------------------------------------------------------------
D|--------------------------------------------------------------------------------------------
A|--555555555555(b)666666666555555555(b)666666---------------------------------------333333333
E|--------------------------------------------55555444333333333344444(b)5554444333333---------

Gtr.2

E|----------------------------------------------------------------------------------------------
B|----------------------------------------------------------------------------------------------
G|----------------------------------------------------------------------------------------------
D|--777777777777(b)8888888888777777777(b)88888--------------------------------------------------
A|---------------------------------------------77777666666655555566666(b)77777766666655555/99999
E|----------------------------------------------------------------------------------------------


Bridge I

E|-------------------------------------------------------------------------
B|-------------------------------------------------------------------------
G|-------------------------------------------------------------------------
D|------------------------------------------------------------------------- x8 ENDING
A|-------------------------8-11-----------------------8-11-----------------
E|--10-000-6-000-1-000-7-10----10-000-6-000-1-000-7-10---------------------

http://www.dynastyofdarkness.com
Guitar Tab Creator is intended to store guitar tab created through the tool. It currently does not support in-line text editing. Any text you place in here will be lost. If you need to comment on your tab, please use the "Tab Notes" section located below.