Never End

(/) Slide Up  (\) Slide Down  (h) Hammer On  (p) Pull Off  (b) Bend (r) Release (v) Vibrato
E|----------------------------------------------|----------------------------------------------
B|----------------------------------------------|----------------------------------------------
G|----------------------------------------------|----------------------------------------------
D|----------------------------------------------|-------------------------------------2--------
A|-----0h2-----2h3-----3p0-----0h2-----2-----2--|-----0h2-----2h3-----3p0-----0h2-----------2--
E|--0-------0-------0-------0-------0-----0-----|--0-------0-------0-------0-------0-----0-----



E|----------------------------------------------|------------------------------------------------
B|----------------------------------------------|------------------------------------------------
G|----------------------------------------------|------------------------------------------------
D|----------------------------------------------|------------------------------0--------0--------
A|-----0h2-----2h3-----3p0-----0h2-----2-----2--|-----0h2-----2p0-----0-----0--------0-----3--2--
E|--0-------0-------0-------0-------0-----0-----|--0-------0-------0-----3--------2--------------



E|--------------------------------------------------|--------------------------------------------------
B|--------------1--------3-----1-----0-----1-----0--|--------------0--------0--------------------------
G|--------0--------0--------------------------------|--------0--------0-----------2-----0-----------0--
D|-----2-----2--------------------------------------|-----------2-----------------------------4--------
A|--3-----------------3-----3-----3-----3-----3-----|-----2--------------------------------------------
E|--------------------------------------------------|--0-----------------0-----0-----0-----0-----0-----



E|---------------------------------------------------------|--
B|--12--12h13-----------12--10-----------------------------|--
G|-------------12v--12----------12--12v--12h14p12------12--|--
D|-------------------------------------------------14------|--
A|---------------------------------------------------------|--
E|---------------------------------------------------------|--



E|--------|--------|--------|--------|--
B|--------|--------|--------|--------|--
G|--------|--------|--------|--------|--
D|--5--2--|--5--2--|--5--2--|--5--2--|--
A|--3--2--|--3--2--|--3--2--|--3--2--|--
E|-----0--|-----0--|-----0--|-----0--|--



E|----------------------------------------------------------|------------------------------------------------------
B|----------------------------------------------------------|------------------------------------------------------
G|------9------11--11h12p11--9------9------11--11h12p11--9--|-----9-----11--11h12p11--9-----9-----11--11h12p11--9--
D|--10-----10-------------------10-----10-------------------|--9-----9-------------------9-----9-------------------
A|----------------------------------------------------------|------------------------------------------------------
E|----------------------------------------------------------|------------------------------------------------------



E|---------------------|------------------|---------------|----------------------------
B|---------------------|------------------|---------------|----------------------------
G|---------------------|------------------|---------------|----------------------------
D|-2-----3-----2-----5-|------------3-----|-2-----5-----2-|----------------------------
A|-2-----3-----2-----5-|------------3-----|-2-----5-----2-|----------------------------
E|-0-0-0-1-0-0-0-0-0-3-|-0-0-0--0-0-1-0-0-|-0-0-0-3-0-0-0-|-0-0-0-0--0-0--0-0-0-0--0-0-



E|-------|----------|-------|----------|---------|-------|----------|-------|----------|-
B|-------|----------|-------|----------|---------|-------|----------|-------|----------|-
G|-------|----------|-------|----------|---------|-------|----------|-------|----------|-
D|-------|----------|-------|----------|---------|-------|----------|-------|----------|-
A|-1---2-|----------|-1---2-|----------|-1---2---|-1---2-|----------|-1---2-|----------|-
E|---3-0-|-0-0-0--0-|---3-0-|-0-0-0--0-|---3-0-0-|---3-0-|-0-0-0--0-|---3-0-|-0-0-0--0-|-



E|---------|-------|----------|-------|----------|---------|-
B|---------|-------|----------|-------|----------|---------|-
G|---------|-------|----------|-------|----------|---------|-
D|---------|-------|----------|-------|----------|---------|-
A|-1---2---|-1---2-|----------|-1---2-|----------|-1---2---|-
E|---3---3-|---3-0-|-0-0-0--0-|---3-0-|-0-0-0--0-|---3-0-0-|-



E|---------------------------------|-
B|---------------------------------|-
G|-0-0-0-0-0-0-0-0-0-0-0-0---------|-
D|-9-9-9-8-8-8-5-5-5-4-4-4-4-4-4-4-|-
A|-7-7-7-6-6-6-3-3-3-2-2-2-0-2-2-2-|-
E|---------------------------------|-



E|-------------------------|---------
B|-------------------------|---------
G|-------------------------|---------
D|-4-4-4-------------------|---------
A|-2-2-2-5-5-5-8-8-8-4-4-4-|-4-5-4---
E|-------3-3-3-6-6-6-2-2-2-|-2-3-2-0-
http://www.guitartabcreator.com
Guitar Tab Creator is intended to store guitar tab created through the tool. It currently does not support in-line text editing. Any text you place in here will be lost. If you need to comment on your tab, please use the "Tab Notes" section located below.