Ear of Pestilence

(/) Slide Up  (\) Slide Down  (h) Hammer On  (p) Pull Off  (b) Bend (r) Release (v) Vibrato
E|--------------------------------------------------------------------------
B|--------------------------------------------------------------------------
G|--------------------------------------------------------------2-----------
D|--------------2--------------------2--------3-----------------2-----------
A|--0--3--2--0--0--3--2--0--0--3--2--0--3--0--1--3--0--3--2--0--0--3--2--0--
E|--0--3--2--0-----3--2--0--0--3--2-----3--0-----3--0--3--2--0-----3--2--0--



E|--------------------------------------
B|--------------------------------------
G|--------------------------------------
D|--------------------------------------
A|--------------------------------------
E|--7--7--7--3--3--3--6--6--6--2--2--2--



E|--------------------------------------------
B|--------------------------------------------
G|--------------------------------------------
D|--------------------------------------------
A|--------------------------------------------
E|--12--12--12--11--11--11--8--8--8--7--7--7--



E|-----------------------------------------------------------------------------------------------------
B|---------------15------16p15---------------15------16b15---------------15------16p15-----------------
G|-----------14------14------------------14------14------------------14------14------------------------
D|--------0---------------------------0---------------------------0------------------------------------
A|-----0---------------------------0---------------------------0---------------------------------------
E|--0---------------------------0---------------------------0---------------------------0--0--0--0--0--



E|------------------------------------------------------------------------------------
B|------------------------------------------------------------------------------------
G|------------------------------------------------------------------------------------
D|---------12-13-10-12---------12-13-10-12---------12-13-10-12----10------------------
A|-------------------------------------------------------------13----12-13-10-12-9-10-
E|-0-0-0-0-------------0-0-0-0-------------0-0-0-0------------------------------------



E|-----------------------------------------------------------------
B|-----------------------------------------------------------------
G|-----------------------------------------------------------------
D|-----------------------------------------------------------------
A|---------5-6-3-5---------5-6-3-5---------5-6-3-5---3-------------
E|-0-0-0-0---------0-0-0-0---------0-0-0-0---------6---5-6-3-5-1-3-



E|------------------------------------------------------------------------
B|------------------------------------------------------------------------
G|-----------------------------------------------------6h7p6---6-7-9b10b9-
D|-------------------------4h5p4-----4h5p4---4-5-7-8-7-------8------------
A|---------5-6-3-6---------------6-5-------6------------------------------
E|-0-0-0-0---------0-0-0-0------------------------------------------------



E|------------------------------------------------
B|------------------------------------------9-----
G|-10-10-10-12-10-10-10-10-9-9-9-9-9-10-----10b11-
D|-8--8--8--8--8--8--8--8--7-7-7-7-7-8------------
A|-8--8--8--8--8--8--8--8--7-7-7-7-7-8------------
E|-8--8--8--8--8--8--8--8--7-7-7-7-7-8--0-0-------



E|--------------------------------------------------------------------
B|--------------------------------------------------------------------
G|-------------------------------------------------6h7p6---6-7-9b10b9-
D|-------------------------------4h5p4---4-5-7-8-7-------8------------
A|-0-0-0--0-0--0-0---0-0-0-0-0---------6------------------------------
E|-0-0-0--0-0--0-0---0-0-0-0-0----------------------------------------



E|--------------
B|--------------
G|-7-10-12-10-9-
D|-0-8--10-8--7-
A|-0-8--10-8--7-
E|-0-8--10-8--7-



E|--
B|--
G|--
D|--
A|--
E|--



E|---------------------------------------------------------------------
B|---------------------------------------------------------------------
G|--14--14--12\10--10--9--10--10/12--14--12--10--9--9--9h10p9----------
D|-------------------------------------------------------------12--10--
A|---------------------------------------------------------------------
E|---------------------------------------------------------------------



E|------------------------------------------------------------------------
B|--15--15--13--11--11--10--11--13--15--13--11--10--10--10h11p10----------
G|----------------------------------------------------------------12--10--
D|------------------------------------------------------------------------
A|------------------------------------------------------------------------
E|------------------------------------------------------------------------



E|--------------------------------------------------------------------------------6--5--
B|--------------------------------------------------------------------3--2--6--5--------
G|--------------------------------------------------------------3--2--------------------
D|--------------------------------------------------------3--2--------------------------
A|--------------------------------------------1--0--5--4--------------------------------
E|--0--0--0--0--0--0--0--0--0--0--0--0--3--2--------------------------------------------



E|--------------------------------------6--5--------------------------------------------
B|--------------------------------------------6--5--3--2--------------------------------
G|--------------------------------------------------------3--2--------------------------
D|--------------------------------------------------------------3--2--------------------
A|--------------------------------------------------------------------5--4--1--0--------
E|--0--0--0--0--0--0--0--0--0--0--0--0--------------------------------------------3--2--



E|--------------------------------------------------------------------------------9--8--
B|--------------------------------------------------------------------6--5--9--8--------
G|--------------------------------------------------------------6--5--------------------
D|--------------------------------------------------------6--5--------------------------
A|--------------------------------------------4--3--8--7--------------------------------
E|--0--0--0--0--0--0--0--0--0--0--0--0--6--5--------------------------------------------



E|--------------------------------------9--8--------------------------------------------
B|--------------------------------------------9--8--6--5--------------------------------
G|--------------------------------------------------------6--5--------------------------
D|--------------------------------------------------------------6--5--------------------
A|--------------------------------------------------------------------8--7--4--3--------
E|--0--0--0--0--0--0--0--0--0--0--0--0--------------------------------------------6--5--



E|---------18p17p16------------------18p17p16------------------18p17p16----------
B|------------------18p17p16------------------18p17p16------------------18p17p16-
G|-------------------------------------------------------------------------------
D|-------------------------------------------------------------------------------
A|-------------------------------------------------------------------------------
E|-0-0-0-0-------------------0-0-0-0-------------------0-0-0-0-------------------



E|-------------------------------------
B|-------------------------------------
G|-17p15p14----------------------------
D|----------17p15p14-------------------
A|-------------------17p15p13----------
E|----------------------------17p15p12-



E|---------21p20p18------------------21p20p18------------------21p20p18----------
B|------------------21p20p18------------------21p20p18------------------21p20p18-
G|-------------------------------------------------------------------------------
D|-------------------------------------------------------------------------------
A|-------------------------------------------------------------------------------
E|-0-0-0-0-------------------0-0-0-0-------------------0-0-0-0-------------------



E|-------------------------------------
B|-------------------------------------
G|-20p18p17----------------------------
D|----------20p18p17-------------------
A|-------------------20p18p16----------
E|----------------------------20p18p15-
http://www.guitartabcreator.com
Guitar Tab Creator is intended to store guitar tab created through the tool. It currently does not support in-line text editing. Any text you place in here will be lost. If you need to comment on your tab, please use the "Tab Notes" section located below.