buy you a drank chords

(/) Slide Up  (\) Slide Down  (h) Hammer On  (p) Pull Off  (b) Bend (r) Release (v) Vibrato


E|-----------------------------
B|-----------------------------
G|-----------------6-----------
D|--------2-----6-----------7--
A|-----2-----4-----------7-----
E|--0-----------------5--------



E|-----------------------------
B|-----------------------------
G|-----------------------------
D|--------2--------6--------7--
A|-----2--------6--------7-----
E|--0--------4--------5--------



E|-----------------------------
B|-----------------------------
G|-----------------------------
D|--------2--------4--------7--
A|-----2--------4--------7-----
E|--0--------2--------5--------



E|----------------------------------------------------------------------
B|--------------9--10--10--9--7--9--------------------7--7--7--9--7-----
G|--9--9--9--9----------------------9--9--9--9--8--9-----------------9--
D|----------------------------------------------------------------------
A|----------------------------------------------------------------------
E|----------------------------------------------------------------------
http://www.guitartabcreator.com
Guitar Tab Creator is intended to store guitar tab created through the tool. It currently does not support in-line text editing. Any text you place in here will be lost. If you need to comment on your tab, please use the "Tab Notes" section located below.