1. Shayna's basic pentatonic scales - open E, A, B, E

(/) Slide Up  (\) Slide Down  (h) Hammer On  (p) Pull Off  (b) Bend (r) Release (v) Vibrato
E|-----------------------------------------------------------------0-----3-----
B|-----------------------------------------------------0-----3-----------------
G|-----------------------------------------0-----2-----------------------------
D|-----------------------------0-----2-----------------------------------------
A|-----------------0-----2-----------------------------------------------------
E|-----0-----3-----------------------------------------------------------------



E|-----------------------------------------------------------------5-----8-----
B|-----------------------------------------------------5-----8-----------------
G|-----------------------------------------5-----7-----------------------------
D|-----------------------------5-----7-----------------------------------------
A|-----------------5-----7-----------------------------------------------------
E|-----5-----8-----------------------------------------------------------------



E|-------------------------------------------------------------------7-----10-----
B|------------------------------------------------------7-----10------------------
G|------------------------------------------7-----9-------------------------------
D|------------------------------7-----9-------------------------------------------
A|------------------7-----9-------------------------------------------------------
E|-----7-----10-------------------------------------------------------------------



E|------------------------------------------12--15--
B|----------------------------------12--15----------
G|--------------------------12--14------------------
D|------------------12--14--------------------------
A|----------12--14----------------------------------
E|--12--15------------------------------------------
http://www.guitartabcreator.com
Guitar Tab Creator is intended to store guitar tab created through the tool. It currently does not support in-line text editing. Any text you place in here will be lost. If you need to comment on your tab, please use the "Tab Notes" section located below.