Gravity Solo- John Mayer

(/) Slide Up  (\) Slide Down  (h) Hammer On  (p) Pull Off  (b) Bend (r) Release (v) Vibrato

E|-------------------------------------------------------------------------19v-----
B|--10h12/15----12--10--12v----10h12/17v----15p12--10v--12v--8v----15--17----------
G|---------------------------------------------------------------------------------
D|---------------------------------------------------------------------------------
A|---------------------------------------------------------------------------------
E|---------------------------------------------------------------------------------



E|----------17v--------------19----------17v--------------19b------------------------
B|--15--17-----------15--17------15--17-----------15--17---------20------------------
G|-------------------------------------------------------------------19b--16--14/16--
D|-----------------------------------------------------------------------------------
A|-----------------------------------------------------------------------------------
E|-----------------------------------------------------------------------------------



E|----------------------------------
B|--15--17v--10v--8v--8/15--13v-----
G|----------------------------------
D|----------------------------------
A|----------------------------------
E|----------------------------------
http://www.guitartabcreator.com
Guitar Tab Creator is intended to store guitar tab created through the tool. It currently does not support in-line text editing. Any text you place in here will be lost. If you need to comment on your tab, please use the "Tab Notes" section located below.