Gravity Intro

(/) Slide Up  (\) Slide Down  (h) Hammer On  (p) Pull Off  (b) Bend (r) Release (v) Vibrato

E|--------------------3----3----------------------------------------------------------
B|-------8--8--10b----3h5--3--5-------------8--10b--10b--10--10v----------------------
G|--7/9--------------------------4v----7/9--------------------------------------------
D|------------------------------------------------------------------5--7/9--7--5v-----
A|------------------------------------------------------------------------------------
E|------------------------------------------------------------------------------------



E|--------------------3----3-----------------------------------------------------------
B|-------8--8--10b----3h5--3--5--------8--8--10b--10--8--8v-------10v---------8--8--10b
G|--7/9----------------------------/9--------------------------9---------7/9-----------
D|-------------------------------------------------------------------------------------
A|-------------------------------------------------------------------------------------
E|-------------------------------------------------------------------------------------



E|-------------
B|--10--8--8v--
G|-------------
D|-------------
A|-------------
E|-------------
http://www.guitartabcreator.com
Guitar Tab Creator is intended to store guitar tab created through the tool. It currently does not support in-line text editing. Any text you place in here will be lost. If you need to comment on your tab, please use the "Tab Notes" section located below.