Missing (Lead)

(/) Slide Up  (\) Slide Down  (h) Hammer On  (p) Pull Off  (b) Bend (r) Release (v) Vibrato

E|-------------------------------------------------------------------------------
B|-------------------------------------------------------------------------------
G|--7--7--9--9--10--10--9--9--7--7-----------------------------------------------
D|----------------------------------10--10--8--8--7--7--8--10--8-----7--8--7-----
A|----------------------------------------------------------------8-----------7--
E|-------------------------------------------------------------------------------



E|---------------------------------------------------------------------------------------
B|-------------------8------8--10--11--10--10--11--10--8--10--8------8-------------------
G|--7--9--10--9--10-----10---------------------------------------10-----10--9--10--9--7--
D|---------------------------------------------------------------------------------------
A|---------------------------------------------------------------------------------------
E|---------------------------------------------------------------------------------------



E|---------------------------------
B|-----10-----10-------------------
G|--7------7-----------------------
D|----------------10--8--10--8--7--
A|---------------------------------
E|---------------------------------



E|-----------8-------------------8--------------
B|------10-8---10-10-8------10-8---10-10-8------
G|---------------------10-9----------------10---
D|-7-5------------------------------------------
A|----------------------------------------------
E|----------------------------------------------



E|------------------5-5---------------------------------------------------------------
B|---10-8---8-6-8-6-----8-------------------------------------------------------------
G|-7------5---------------3-3-3-3-3-3-3-3-3-3-3-3-3-3-3-5-----------------------------
D|------------------------3-3-3-3-3-3-3-3-3-3-3-3-3-3-3-5-----------------------------
A|------------------------1-1-1-1-1-1-1-1-1-1-1-1-1-1-1-3-3-3-3-3-3-3-3-3-3-3-3-3-3-3-
E|------------------------------------------------------------------------------------



E|---------------------------------------------------
B|---------------------------------------------------
G|---------------------------------------------------
D|---------------------------------------------------
A|-5-5-5-5-5-5-5-5-5-5-5---5-5-5-5-5-5-5-5-5-5-5-----
E|-----------------------5-----------------------5---



E|-------------------------------------------------------------------------
B|-------------------------------------------------------------------------
G|-------------------------------------------------------------------------
D|-------------------------------------------------------------------------
A|-1-1-1-1-1-1-1-1-1-1-1-1-1-1-1-1-1-1-3-3-3-3-3-3-3-3-3-3-3-3-3-3-3-3-3-0-
E|-------------------------------------------------------------------------



E|------------10-12-13----10-13-12-13----10-13-15-13----10-17-15-13----10-12-13-
B|-10---------6--8-----10-------------10-------------10-------------10----------
G|----9-------------------------------------------------------------------------
D|------11----------------------------------------------------------------------
A|---------12-------------------------------------------------------------------
E|------------------------------------------------------------------------------



E|--10--12------17--15------15--13------10--13--12--13--15--13--15--12--------------------------------
B|--6---8---15----------13----------10--------------15--17--15--17--15--------------------------------
G|----------------------------------------------------------------------------------------------------
D|----------------------------------------------------------------------------------------------------
A|----------------------------------------------------------------------------------------------------
E|----------------------------------------------------------------------------------------------------
http://www.guitartabcreator.com
Guitar Tab Creator is intended to store guitar tab created through the tool. It currently does not support in-line text editing. Any text you place in here will be lost. If you need to comment on your tab, please use the "Tab Notes" section located below.