Mirror Image - Forgotten

(/) Slide Up  (\) Slide Down  (h) Hammer On  (p) Pull Off  (b) Bend (r) Release (v) Vibrato
E|-----------------------------------------------------------------------
B|-----------------------------------------------------------------------
G|-----------------------------------------------------------------------
D|-----------5-------------------7-5-----------5-------------------------
A|-5-5-5-7-8---8-7-5-3-5-5-5-7-8-----5-5-5-7-8---8-7-5-3-5-5-5-7-8-7-5-3-
E|-----------------------------------------------------------------------



E|---------------------------------
B|---------------------------------
G|-------9-------5-------3---------
D|-0-0-0-7-0-0-0-7-0-0-0-7-0-0-0-0-
A|-0-0-0-5-0-0-0-5-0-0-0-5-0-0-0-0-
E|-0-0-0---0-0-0---0-0-0---0-0-0-4-



E|-----
B|-----
G|-----
D|-3-5-
A|-3-3-
E|-3-2-



E|----------------------------------------------------------------------------------------------------
B|----------------------------------------------------------------------------------------------------
G|----------------------------------------------------------------------------------------------------
D|-0-0-3-0-3-5-0-0-7-7-7-5-5-5-5-5-0-0-5-0-5-7-0-0-10-0-0-8-0-0-7-12-12-12-14-14-14-15-15-15----------
A|-------------------------------------------------------------------------------------------13-13-13-
E|----------------------------------------------------------------------------------------------------



E|------------------------------------------
B|------------------------------------------
G|-14-14-14-12-12-12-10-10-10-9-9-9-7-7-5-5-
D|------------------------------------------
A|-12-12-12-10-10-10-8--8--8--7-7-7-5-5-3-3-
E|------------------------------------------



E|------------------------------------------------------------------------
B|------------------------------------------------------------------------
G|------------------------------------------------------------------------
D|-3-3-----3-------3-3-----5/7-7-7-7-7-8-7---------7-8-5-7-8-7-8-10-12-12-
A|-5-5-3-5---5-3-5-5-5-3-5-------8-8-------10-8-10------------------------
E|------------------------------------------------------------------------



E|-10-10-12-12-13-13-15-15-15-16-15-13----
B|-13-15-15-17-13-15-13-13-14-14-14-14-15-
G|----------------------------------------
D|----------------------------------------
A|----------------------------------------
E|----------------------------------------



E|---------------------------------------------------------------
B|---------------------------------------------------------------
G|---------------------------------------------------------------
D|-3-----2-----3-----2-----7---5---3---------3-----2-----0---2---
A|---------------------------------------------------------------
E|---0-0---0-0---0-0---0-0---0---0---0-0-0-0---0-0---0-0---0---0-



E|---------------------------------------------------------------
B|---------------------------------------------------------------
G|---------------------------------------------------------------
D|-3-----2-----3-----2-----7---5---3-----5-----7-----5---3---2---
A|---------------------------------------------------------------
E|---0-0---0-0---0-0---0-0---0---0---0-0---0-0---0-0---0---0---0-



E|---------
B|---------
G|---------
D|-3-5-1-0-
A|-3-5-1-0-
E|-3-5-1-1-



E|-------------------------------------------------------------------------
B|-------------------------------------------------------------------------
G|-------------------------------------------------------------------------
D|-0-0-0-3-3-3-0-0-0-0-0-0-0-0-0-3-3-3-------------------------------------
A|-0-0-0-3-3-3-0-0-0-0-0-0-0-0-0-3-3-3-----------------0-------------------
E|-0-0-0-3-3-3-0-0-0-1-1-1-0-0-0-3-3-3-6-5-0-3-0-3-5-3-1-6-5-3-0-0-0-0-0-0-
http://www.guitartabcreator.com
Guitar Tab Creator is intended to store guitar tab created through the tool. It currently does not support in-line text editing. Any text you place in here will be lost. If you need to comment on your tab, please use the "Tab Notes" section located below.