Feel the Cold

(/) Slide Up  (\) Slide Down  (h) Hammer On  (p) Pull Off  (b) Bend (r) Release (v) Vibrato


E|----------------------------------------------------------------------------------------------------
B|----------------------------------------------------------------------------------------------------
G|--10--8--6--5--5--6------------10--11--13--10--11--13----------10--11--13----------------10--11-----
D|---------------------8--8--11--------------------------11--10--------------11--8--8--11-------------
A|----------------------------------------------------------------------------------------------------
E|----------------------------------------------------------------------------------------------------



E|--------------13--16--14--13----------13--14--13--11--11--13------------------------------
B|----------14----------------------14--------------------------14--16--14--13--14--13--11--
G|--13--15----------------------15----------------------------------------------------------
D|------------------------------------------------------------------------------------------
A|------------------------------------------------------------------------------------------
E|------------------------------------------------------------------------------------------



E|-------------------9--12--11--12--11--9--
B|------------9--11------------------------
G|--8--9--10-------------------------------
D|-----------------------------------------
A|-----------------------------------------
E|-----------------------------------------



E|------------8--11--9--11--9--8--18--20--21--
B|---------9----------------------------------
G|-----10-------------------------------------
D|--8-----------------------------------------
A|--------------------------------------------
E|--------------------------------------------



E|--13--14--16----------13--14--16------------------
B|--------------14--13--------------14--11--13--14--
G|--------------------------------------------------
D|--------------------------------------------------
A|--------------------------------------------------
E|--------------------------------------------------
http://www.guitartabcreator.com
Guitar Tab Creator is intended to store guitar tab created through the tool. It currently does not support in-line text editing. Any text you place in here will be lost. If you need to comment on your tab, please use the "Tab Notes" section located below.