Heartbeats

(/) Slide Up  (\) Slide Down  (h) Hammer On  (p) Pull Off  (b) Bend (r) Release (v) Vibrato


E |--------------------------------------------------¦---------------------------------------------¦
B |--------------------------------------------------¦---------------------------------------------¦
F#|---------------------3---------------------3------¦--------------0-------------------------0----¦
D |---------------0-------------------0--------------¦--------4-----------4-------------4----------¦
A |------4h5--5------5--------4h5--5------5------0---¦--2--2-----2-----2------0h2---2------0-------¦
D |--0-----------------------------------------------¦-------------------------------------------4-¦

E |--------------------------------------------------¦
B |--------------------------------------------------¦
F#|---------------0-----------------------------0----¦
D |---------0------------0--------------0------------¦
A |------5-----5------5-------4h5---5-------5------0-¦
D |--5-----------------------------------------------¦

e ---------------|
b ---------------|
f#-----------0---|
d -----0---0-----|
a -4h5---5-----0-|
D ---------------|

e --------------- e ---------------|
b --------------- b ---------------|
f#---------0----- f#---------0-----|
d -------0-----0- d -------0-----0-|
a -----7-----7--- a -----5-----5---|
D -7------------- x4 D -5-------------| x4

e ------------------------------|
b ---------0--------------0-----|
f#-------0-----0--------0-----0-|
d -----4-----4--------4-----4---|
a -2--------------2-------------|
d ------------------------------|

e ----------------------------|
b ---------0--------------0---|
f#-------0-----0-----3-0------|
d -----4-----4----------------|
a -2--------------2-----2---0-|
d ----------------------------|

http://www.guitartabcreator.com
Guitar Tab Creator is intended to store guitar tab created through the tool. It currently does not support in-line text editing. Any text you place in here will be lost. If you need to comment on your tab, please use the "Tab Notes" section located below.