The Day That Never Comes Metallica

(/) Slide Up  (\) Slide Down  (h) Hammer On  (p) Pull Off  (b) Bend (r) Release (v) Vibrato


E|--------------------------------------------------------------------------------------------------
B|--------------------------------------------------------------------------------------------------
G|--------------------------------------------------------------------------------------------------
D|--14--------------14--------------12--------------12--------------12--------------12--------------
A|------13------13------13------13------12------12------12------12------15------15------15------15--
E|----------12--------------12--------------12--------------12--------------14--------------14------



E|----------------------------------
B|----------------------------------
G|----------------------------------
D|--14--------------14--------------
A|------13------13------13------13--
E|----------12--------------12------



E|------------------------------
B|------------------------------
G|--12--13--15--14--15--17--19--
D|------------------------------
A|------------------------------
E|------------------------------
http://www.guitartabcreator.com
Guitar Tab Creator is intended to store guitar tab created through the tool. It currently does not support in-line text editing. Any text you place in here will be lost. If you need to comment on your tab, please use the "Tab Notes" section located below.