You Never Let Go [A] - Matt Redman

INTRO + VERSE
G|--------|
D|--------|
A|--------|
E|--5--2--|
B|--------|

PRE-CHORUS
G|-----------------|
D|--7-6-4-2-4-2----|
A|--------------0--|
E|-----------------|
B|-----------------|

G|-----------------|
D|--7-6-4-2-4-6-7--|
A|-----------------|
E|-----------------|
B|-----------------|

G|-----------------|------|
D|--7-6-4-2-4-2----|------|
A|--------------0--|------|
E|-----------------|-0----|
B|-----------------|----3-|

CHORUS
G|---------------|---------|
D|---------------|---------|
A|---------------|---------|
E|--5-4--2--0----|-5--0----|
B|------------3--|------3--|
Guitar Tab Creator is intended to store guitar tab created through the tool. It currently does not support in-line text editing. Any text you place in here will be lost. If you need to comment on your tab, please use the "Tab Notes" section located below.