We are the Free [D] - Matt Redman

INTRO
G|-------------|
D|-------------|
A|--------2----|
E|-----2----3--|
B|--3----------|

VERSE (x2)
G|----------------|
D|-----------5-2--|
A|--5--4--2-------|
E|-----------3-0--|
B|--3--2--0-------|

CHORUS
G|--------------|
D|--------------|
A|--------------| x2
E|-----5--7--3--|
B|--3-----------|

G|-------------|--|
D|-------------|--|
A|--------2----|--|
E|-----2----3--|--|
B|--3----------|-3|

INTRO
VERSE (X2)
CHORUS
INTRO (X2)

BRIDGE
G|----------------|
D|----------------|
A|------5---12/17-|
E|--3--(10)-------|
B|-(8)------------|

G|---------------|-----------|
D|---------------|-----------|
A|---------------|--7--10----|
E|--3------5/10--|-----------|
B|-----3---------|-(5)-(8)---|

CHORUS (X4)
INTRO (X4)
Guitar Tab Creator is intended to store guitar tab created through the tool. It currently does not support in-line text editing. Any text you place in here will be lost. If you need to comment on your tab, please use the "Tab Notes" section located below.