We are the Free [Bb] - Matt Redman

INTRO
G|-------------|
D|--------5----|
A|-----5----6--|
E|--6----------|
B|-------------|


VERSE 1 (x2)
G|----------------|
D|----------------|
A|-----------6-3--|
E|--6--5--3-------|
B|----------------|


CHORUS
G|--------------|
D|--------------|
A|-----------6--|
E|--6--1--3-----|
B|--------------|

G|--------------|
D|-----3--------|
A|-----------6--|
E|--6-----3-----|
B|--------------|

G|-------------|--|
D|--------5----|--|
A|-----5----6--|--|
E|--6----------|-6|
B|-------------|--|


INTERLUDE 1
G|-------------|
D|--------5----|
A|-----5----6--|
E|--6----------|
B|-------------|


VERSE 2 (x2)
G|----------------|
D|----------------|
A|-----------6-3--|
E|--6--5--3-------|
B|----------------|


CHORUS
G|--------------|
D|--------------|
A|-----------6--|
E|--6--1--3-----|
B|--------------|

G|--------------|
D|-----3--------|
A|-----------6--|
E|--6-----3-----|
B|--------------|

G|-------------|--|
D|--------5----|--|
A|-----5----6--|--|
E|--6----------|-6|
B|-------------|--|


INTERLUDE 2 (x2)
G|-------------|
D|--------5----|
A|-----5----6--|
E|--6----------|
B|-------------|


BRIDGE
G|----------------|
D|----------------|
A|----------8/13--|
E|------6---------|
B|--4-------------|

G|----------------|--------|
D|----------------|--------|
A|---6------8/13--|--------|
E|------6---------|--8--11-|
B|----------------|--------|


CHORUS
G|--------------|
D|--------------|
A|--------------|(x2)
E|--6--1--3-----|
B|-----------4--|

G|--------------|
D|-----3--5-----|
A|-----------6--|
E|--6-----------|
B|--------------|

G|--------------|
D|--------------|
A|-----------6--|
E|--6--1--3-----|
B|--------------|

G|--------------|
D|--------------|
A|-----5-----6--|
E|--6-----3-----|
B|--------------|

G|-------------|---|
D|--------5----|---|
A|-----5----6--|---|
E|--6----------|-6-|
B|-------------|---|

G|-------------|-------|
D|--------5----|-------|
A|-----5----6--|---8/11|(x2)
E|--6----------|-6-----|
B|-------------|-------|
Guitar Tab Creator is intended to store guitar tab created through the tool. It currently does not support in-line text editing. Any text you place in here will be lost. If you need to comment on your tab, please use the "Tab Notes" section located below.