We are the Free [B] - Matt Redman

INTRO
G|-------------|
D|--------6----|
A|-----6----7--|
E|--7----------|
B|-------------|


VERSE 1 (x2)
G|----------------|
D|----------------|
A|-----------7-4--|
E|--7--6--4-------|
B|----------------|


CHORUS
G|--------------|
D|--------------|
A|-----------7--|
E|--7--2--4-----|
B|--------------|

G|--------------|
D|-----4--------|
A|-----------7--|
E|--7-----4-----|
B|--------------|

G|-------------|--|
D|--------6----|--|
A|-----6----7--|--|
E|--7----------|-7|
B|-------------|--|


INTERLUDE 1
G|-------------|
D|--------6----|
A|-----6----7--|
E|--7----------|
B|-------------|


VERSE 2 (x2)
G|----------------|
D|----------------|
A|-----------7-4--|
E|--7--6--4-------|
B|----------------|


CHORUS
G|--------------|
D|--------------|
A|-----------7--|
E|--7--2--4-----|
B|--------------|

G|--------------|
D|-----4--------|
A|-----------7--|
E|--7-----4-----|
B|--------------|

G|-------------|--|
D|--------6----|--|
A|-----6----7--|--|
E|--7----------|-7|
B|-------------|--|


INTERLUDE 2 (x2)
G|-------------|
D|--------6----|
A|-----6----7--|
E|--7----------|
B|-------------|


BRIDGE
G|----------------|
D|----------------|
A|----------9/14--|
E|------7---------|
B|--5-------------|

G|----------------|--------|
D|----------------|--------|
A|---7------9/14--|--------|
E|------7---------|--9--12-|
B|----------------|--------|


CHORUS
G|--------------|
D|--------------|
A|--------------|(x2)
E|--7--2--4-----|
B|-----------5--|

G|--------------|
D|-----4--6-----|
A|-----------7--|
E|--7-----------|
B|--------------|

G|--------------|
D|--------------|
A|-----------7--|
E|--7--2--4-----|
B|--------------|

G|--------------|
D|--------------|
A|-----6-----7--|
E|--7-----4-----|
B|--------------|

G|-------------|---|
D|--------6----|---|
A|-----6----7--|---|
E|--7----------|-7-|
B|-------------|---|

G|-------------|-------|
D|--------6----|-------|
A|-----6----7--|---9/12|(x2)
E|--7----------|-7-----|
B|-------------|-------|
Guitar Tab Creator is intended to store guitar tab created through the tool. It currently does not support in-line text editing. Any text you place in here will be lost. If you need to comment on your tab, please use the "Tab Notes" section located below.