The Stand [A] - Hillsong

VERSE 1 
G|----------------|
D|-----------4----|
A|-----5--4----5--| (x2)
E|--5-------------|
B|----------------|

G|------------|-----------|
D|------------|-----------|
A|--5--2------|--5--7--9--|
E|--------2---|-----------|
B|------------|-----------|


VERSE 2
G|----------------|
D|-----------4----|
A|-----5--4----5--|
E|--5-------------|
B|----------------|

G|------------|-----------|
D|------------|-----------|
A|--5--2------|--5--7-----|
E|--------2---|-----------|
B|------------|--------7--|

G|------------|-----------|
D|------------|-----------|
A|--5--2------|-----------|
E|--------2-5-|--7----0---|
B|------------|-----------|


BRIDGE
G|--------------|
D|--------------|
A|--5--0--7--9--|
E|--------------|
B|--------------|
Guitar Tab Creator is intended to store guitar tab created through the tool. It currently does not support in-line text editing. Any text you place in here will be lost. If you need to comment on your tab, please use the "Tab Notes" section located below.