The Stand [E] - Hillsong

VERSE 1 
G|----------------|
D|----------------|
A|-----0-----4-0--| (x2)
E|--0-----4-------|
B|----------------|

G|------------|-----------|
D|------------|-----------|
A|--0---------|--0--2--4--|
E|-----2------|-----------|
B|--------2---|-----------|


VERSE 2
G|----------------|
D|----------------|
A|-----0-----4-0--|
E|--0-----4-------|
B|----------------|

G|------------|-----------|
D|------------|-----------|
A|--0---------|--0--2-----|
E|-----2------|-----------|
B|--------2---|--------2--|

G|------------|-----------|
D|------------|-----------|
A|--0---------|-----------|
E|-----2----0-|--2--------|
B|--------2---|--------0--|

BRIDGE
G|--------------|
D|--------------|
A|--0-----2--4--|
E|-----0--------|
B|--------------|
Guitar Tab Creator is intended to store guitar tab created through the tool. It currently does not support in-line text editing. Any text you place in here will be lost. If you need to comment on your tab, please use the "Tab Notes" section located below.