Sing Sing Sing [E] - Charlie Hall

CHORUS + VERSE
G|------------------|
D|------------------|
A|-(7)--4-------(7)-|
E|--0------7--5--0--|
B|------------------|

OUTRO
G|-----------------|--------|-|
D|-----------------|--------|-|
A|--7--4--------7--|-----7--|-|
E|--------7--5-----|-7-5----|0|
B|-----------------|--------|-|
Guitar Tab Creator is intended to store guitar tab created through the tool. It currently does not support in-line text editing. Any text you place in here will be lost. If you need to comment on your tab, please use the "Tab Notes" section located below.