Rise and Sing [B] - Steve Fee

INTRO
G|---------------|
D|---------------|
A|--2--6---------|
E|--------4--2-0-|
B|---------------|


VERSE (1,2) X2
G|-----------------------|
D|-----------------------|
A|--2/6--2/7--2/6--2/7---|
E|---------------------2-|
B|-----------------------|

CHORUS
Slide from A|-10
G|---------------|
D|---------------|
A|--2--6---------|
E|--------4--2-0-|
B|---------------|

VERSE 3
G|-------------------------------|
D|-------------------------------|
A|------2-------2-2-2------2-2-2-|
E|--2-0-----2-0--------2-0-------|
B|-------------------------------|
Guitar Tab Creator is intended to store guitar tab created through the tool. It currently does not support in-line text editing. Any text you place in here will be lost. If you need to comment on your tab, please use the "Tab Notes" section located below.