Rain Down [E] - Delirious

INTRO
G|----------------|----------------|----------------|----------------|
D|----------------|------------7-7-|----------------|------------7-7-|
A|7-7-7-7-7-7-7-7-|7-7-7-7-7-7-----|7-7-7-7-7-7-7-7-|7-7-7-7-7-7-----|
E|----------------|----------------|----------------|----------------|
B|----------------|----------------|----------------|----------------|

G|----------------|----------------|----------------|----------------|
D|----------------|----------------|----------------|----------------|
A|----------------|----------------|----------------|----------------|
E|5-5-5-5-5-5-5-4-|5-5-5-5-5-5-5-4-|5-5-5-5-5-5-5-4-|5-5-5-5-5-5-5-4-|
B|----------------|----------------|----------------|----------------|


VERSE 1
Looks like tonight
G|----------------|----------------|----------------|----------------|
D|----------------|----------------|----------------|----------------|
A|--4-2-4---------|--7-7-7---------|----------------|----------------|
E|----------------|----------------|---5-3-5-5------|----------------|
B|--------5-------|---------5------|----------------|---5-7-7-5------|

Feels like the winds
G|----------------|----------------|----------------|----------------|
D|----------------|----------------|----------------|----------------|
A|--4-2-4---------|--7-7-7---------|----------------|----------------|
E|----------------|----------------|---5-3-5-5------|----------------|
B|--------5-------|---------5------|----------------|---5-7-7-5------|


Beneath my feet
G|----------------|----------------|----------------|----------------|
D|----------------|----------------|----------------|----------------|
A|--4-2-4---------|--7-7-7---------|----------------|----------------|
E|----------------|----------------|---5-3-5-5------|----------------|
B|--------5-------|---------5------|----------------|---5-7-7-5------|


I know it's time
G|----------------|----------------|----------------|----------------|
D|----------------|----------------|----------------|----------------|
A|--4-2-4---------|--7-7-7---------|----------------|----------------|
E|----------------|----------------|---5-3-5-5------|----------------|
B|--------5-------|---------5------|----------------|---5-7-7-5------|



PRE-CHORUS
It's gonna rain
G|----------------|----------------|----------------|----------------|
D|----------------|----------------|----------------|----------------|
A|--------6-6-6-6-|7-7-7-7-8-8-8-8-|--------6-6-6-6-|7-7-7-7-9-9-9-9-|
E|----------------|----------------|----------------|----------------|
B|5-5-5-5---------|----------------|5-5-5-5---------|----------------|

Cause it's living water
G|----------------|----------------|----------------|----------------|
D|----------------|----------------|----------------|----------------|
A|--------6-6-6-6-|7-7-7-7-8-8-8-8-|--------6-6-6-6-|7-7-7-7-9-9-9-9-|
E|5-5-5-5---------|----------------|5-5-5-5---------|----------------|
B|----------------|----------------|----------------|----------------|


CHORUS
Rain down, all around the world
G|----------------|----------------|----------------|----------------|
D|----------------|----------------|----------------|9-9-7-7-6-6-4-4-|
A|7-7-7-7-7-7-7-6-|7-7-7-7-7-7-7-6-|7-7-7-7-7-7-7-6-|----------------|
E|----------------|----------------|----------------|----------------|
B|----------------|----------------|----------------|----------------|

Rain Down, can you the earth
G|----------------|----------------|----------------|----------------|
D|----------------|----------------|----------------|----------------|
A|----------------|----------------|----------------|----2-2-4-4-6-6-|
E|5-5-5-5-5-5-5-4-|5-5-5-5-5-5-5-4-|5-5-5-5-5-5-5-4-|5-5-------------|
B|----------------|----------------|----------------|----------------|

Rain down, my heart is dry
G|----------------|----------------|----------------|----------------|
D|----------------|----------------|----------------|9-9-7-7-6-6-4-4-|
A|7-7-7-7-7-7-7-6-|7-7-7-7-7-7-7-6-|7-7-7-7-7-7-7-6-|----------------|
E|----------------|----------------|----------------|----------------|
B|----------------|----------------|----------------|----------------|
Rain Down,
G|----------------|----------------|----------------|----------------|
D|----------------|----------------|----------------|----------------|
A|----------------|----------------|----------------|----2-2-4-4-6-6-|
E|5-5-5-5-5-5-5-4-|5-5-5-5-5-5-5-4-|5-5-5-5-5-5-5-4-|5-5-------------|
B|----------------|----------------|----------------|----------------|
Guitar Tab Creator is intended to store guitar tab created through the tool. It currently does not support in-line text editing. Any text you place in here will be lost. If you need to comment on your tab, please use the "Tab Notes" section located below.