Our God [B] - Chris Tomlin

VERSE
G|-----------|-----------|--------|
D|-----------|-----------|--------|
A|--------2--|--------2--|--4-(9)-|
E|--4--0-----|--4--0-----|-----2--|
B|-----------|-----------|--------|


CHORUS
G|--------------|
D|--------------|
A|--------2--1--|
E|--4--0--------|
B|--------------|

G|---------------|
D|---------------|
A|--------2------|
E|--4--0-----2---|
B|---------------|


//REPEAT//


BRIDGE
G|---------------|
D|---------------|
A|--------6------|
E|--4--0-----2---|
B|---------------|
Guitar Tab Creator is intended to store guitar tab created through the tool. It currently does not support in-line text editing. Any text you place in here will be lost. If you need to comment on your tab, please use the "Tab Notes" section located below.