One Thing Remains [A] - Jesus Culture ***Edit***

VERSE
G|-----------|
D|-----------|
A|----(7)----|
E|--5--0--7--|
B|-----5-----|

CHORUS
G|--------------|
D|--------------|
A|--4----(7)----|
E|-----5--0--7--|
B|--------------|

BRIDGE
G|--------------|
D|--------------|
A|--4-----------|
E|-----5--0--7--|
B|--------------|

G|-----------|
D|-----------|
A|--5-----7--|
E|-----5-----|
B|-----------|



A A# B C C# D D# E F F# G G#

G|------------------------|
D|------------------------|
A|--------------5--4------|
E|-----5-----7-------5----|
B|--3-----5------------5--|


G|------------------------|
D|-----------4------------|
A|-----7-------------7----|
E|--5-----7-----5--4---7--|
B|------------------------|
Guitar Tab Creator is intended to store guitar tab created through the tool. It currently does not support in-line text editing. Any text you place in here will be lost. If you need to comment on your tab, please use the "Tab Notes" section located below.