Nothing is Impossible [C] - Planetshakers

INTRO
G|--------------|
D|--------------|
A|--3-----------|
E|-----3--5--1--|
B|--------------|

G|-----------|
D|-----------|
A|--8-3-5-8--|
E|-----------|
B|-----------|


VERSE
G|---------------|
D|---------------|
A|--3-5-8--------|
E|--------5-3-1--|
B|---------------|

G|--------------|---------|
D|--------------|---------|
A|------------3-|-------3-|
E|--5-5-3-5-5---|-3-1-3---|
B|--------------|---------|

G|--------------|-----------|-|
D|--------------|-----------|-|
A|------------3-|-------3---|8|
E|--5-5-3-5-5---|-3-1-3---1-|-|
B|--------------|-----------|-|

G|--------------|-------------|
D|--------------|-------------|
A|------------3-|-------3-5-8-|
E|--5-5-3-5-5---|-3-1-3-------|
B|--------------|-------------|


CHORUS
G|---------------|
D|---------------|
A|--3-5----------|
E|------3--5--1--|
B|---------------|
Guitar Tab Creator is intended to store guitar tab created through the tool. It currently does not support in-line text editing. Any text you place in here will be lost. If you need to comment on your tab, please use the "Tab Notes" section located below.