Nothing But the Blood [C] - Matt Redman

VERSE
G|---------------------------|
D|---------------------------|
A|--3-----3-----------3------|
E|-----5-----5--3--1-----3-1-|
B|---------------------------|

CHORUS
G|---------------------|
D|---------------------|
A|--3-----------3------|
E|-----5--3--1-----3-1-|
B|---------------------|
Guitar Tab Creator is intended to store guitar tab created through the tool. It currently does not support in-line text editing. Any text you place in here will be lost. If you need to comment on your tab, please use the "Tab Notes" section located below.