Never Alone [E] - Barlowgirl

INTRO
G|------------------------------------------------|
D|------------------------------------------------| X4
A|-------------3-3-3-3-3-3------------------------|
E|--0-0-0-0-0-0-----------3-3-3-3-3-3-2-2-2-2-3-2-|


G|--------------------------------------------------------|
D|--------------------------------------------------------| X1
A|-------------3-3-3-3-3-3-10-10-10-10-10-10-9-9-9-9-10-9-|
E|--0-0-0-0-0-0-------------------------------------------|


G|------------------------------------------------|
D|------------------------------------------------| X1
A|-------------3-3-3-3-3-3------------------------|
E|--0-0-0-0-0-0-----------3-3-3-3-3-3-2-2-2-2-3-2-|


G|-----------------------------------------------|
D|-----------------------------------------------|
A|-3-3-3-3-3-3-3-3-3-5-5-5-7-7-7-7-7-7-7-7-5-5-5-|
E|-----------------------------------------------|
X2
G|-------------------------------------------------|
D|-------------------------------------------------|
A|3-3-3-3-3-3-3-3-3-3-3-3--------------------------|
E|-----------------------3-3-3-3-3-5-6-7-7-7-7-7-7-|


G|--------------------------------------------------|
D|--------------------------------------------------|
A|-------------7-7-7-5-5-5-3-3-3-3-3-3-3-3-3-3-2=2-2|
E|--0-0-0-0-0-0-------------------------------------|

G|------------------------------------------------|
D|------------------------------------------------|
A|-0-0-0-0-0-0-0-0-0-0-0-0-0----------------------|
E|--------------------------3-3-3-3-5-6-7-7-7-7-7-|


G|--------------------------------------------------------|
D|--------------------------------------------------------| X1
A|-------------3-3-3-3-3-3-10-10-10-10-10-10-9-9-9-9-10-9-|
E|--0-0-0-0-0-0-------------------------------------------|
Guitar Tab Creator is intended to store guitar tab created through the tool. It currently does not support in-line text editing. Any text you place in here will be lost. If you need to comment on your tab, please use the "Tab Notes" section located below.