Living for You [D] - Gateway Worship

INTRO
G|----------|
D|----------|
A|--5--7----|
E|--------8-|
B|----------|


VERSE
G|--------|
D|--------|
A|--------|
E|--10--8-|
B|--------|

CHORUS
G|--------------|
D|--------------|
A|--5-----------|
E|-----7--5--3--|
B|--------------|

INTRO
CHORUS

BRIDGE (X2)
G|----------|--|
D|----------|--|
A|----------|--|
E|--5--7--3-|10|
B|----------|--|

CHORUS
Guitar Tab Creator is intended to store guitar tab created through the tool. It currently does not support in-line text editing. Any text you place in here will be lost. If you need to comment on your tab, please use the "Tab Notes" section located below.