Living for You [B]- Gateway Worship

INTRO
G|----------|
D|----------|
A|--2--4----|
E|--------5-|
B|----------|

VERSE
G|--------|
D|--------|
A|--------|
E|--7--5--|
B|--------|

CHORUS
G|--------------|
D|--------------|
A|--2-----------|
E|-----4--2--0--|
B|--------------|

INTRO
CHORUS

BRIDGE (X2)
G|----------|-|
D|----------|-|
A|----------|-|
E|--2--4--0-|7|
B|----------|-|

CHORUS
Guitar Tab Creator is intended to store guitar tab created through the tool. It currently does not support in-line text editing. Any text you place in here will be lost. If you need to comment on your tab, please use the "Tab Notes" section located below.