Joy to the World (Unspeakable Joy) [D] - Chris Tomlin

INTRO X4
G|-----|
D|-----|
A|-5---|
E|---3-|
B|-----|


G|-------------------------------------------------|
D|-------------------------------------------------|
A|-5-5-5-5-5-5-5-5---------------------------------|
E|-----------------3-3-3-3-5-5-5-5-7-7-7-7-7-7-7-7-|
B|-------------------------------------------------|

G|----------------------------------------------------|
D|----------------------------------------------------|
A|--------------------------5--------------5----------|
E|3-3-3-3-3-3-3-5-5-5-5-7-7--7-7-5-7-5-7-7--7-7-5-7-5-|
B|----------------------------------------------------|

G|-------------------------------|
D|-------------------------------|
A|---------------5-5-5-5-5-5-5-5-| x2
E|-3-3-3-3-3-3-3-----------------|
B|-------------------------------|

G|---------------------------------------|
D|---------------------------------------|
A|---------------5-----------------3-----|
E|7-7-7-7-5-7-7----7-7-7-5-5-3-5-5---5-5-|
B|---------------------------------------|

G|-------|
D|-------|
A|-------|
E|-3-0-5-|
B|-------|

G|-----|
D|-----|
A|-5---| X2
E|---3-|
B|-----|

G|-------------------------------------------------|
D|-------------------------------------------------|
A|-5-5-5-5-5-5-5-5---------------------------------|
E|-----------------3-3-3-3-5-5-5-5-7-7-7-7-7-7-7-7-|
B|-------------------------------------------------|

G|----------------------------------------------------|
D|----------------------------------------------------|
A|--------------------------5--------------5----------|
E|3-3-3-3-3-3-3-5-5-5-5-7-7--7-7-5-7-5-7-7--7-7-5-7-5-|
B|----------------------------------------------------|

G|------------------------|
D|------------------------|
A|----------5-5-7-5-5-5-5-| x2
E|-3-3-3-3----------------|
B|------------------------|


G|-----------|
D|-------2---|
A|---------0-|
E|-7-5-3-----|
B|-----------|

G|-----------/7-|
D|--------------|
A|5-5-5-5-5-5---|
E|--------------|
B|--------------|

G|--------|----------|
D|--------|----------|
A|--------|--5-------|
E|3-7-5-3-|3---5-0-3-|
B|--------|----------|


G|--|------|
D|--|------|
A|--|------|
E|0-|5-7-9-|
B|--|------|

G|-----------|
D|-----------|
A|--------7*-| x2
E|-5-7-9-----|
B|-----------|

G|--------|-------------|
D|--------|-------------|
A|--------|-------------|
E|5-4-5-4-|9-7-5-2-7-|0-|
B|--------|-------------|

G|--------|----------|
D|--------|----------|
A|--------|----------|
E|5-0-7-5-|5-0-7-2-5-|
B|--------|----------|

G|----|=-|
D|----|--|
A|----|--|
E|0-5-|0-|
B|----|--|
Guitar Tab Creator is intended to store guitar tab created through the tool. It currently does not support in-line text editing. Any text you place in here will be lost. If you need to comment on your tab, please use the "Tab Notes" section located below.