Happy Day [F] - Jesus Culture

INTRO
G|-----------|
D|-----------|
A|---1--5--3-|
E|1----------|
B|-----------|


VERSE
G|-----------|
D|-----------|
A|---1--5--1-|
E|1----------|
B|-----------|


CHORUS
G|-----------|
D|-----------|
A|---1--5--3-|
E|1----------|
B|-----------|


BRIDGE
G|------------------|
D|------------------|
A|5--------8--18/20-|
E|---5--6-----------|
B|------------------|
Guitar Tab Creator is intended to store guitar tab created through the tool. It currently does not support in-line text editing. Any text you place in here will be lost. If you need to comment on your tab, please use the "Tab Notes" section located below.