Happy Day [C] - Jesus Culture

VERSE
G|-----------|
D|-----------|
A|3--8--12--8|
E|-----------|
B|-----------|

G|--------------------------|
D|--------------------------|
A|3--8--(0-0-2-2-3-3)--8--10|
E|--------------------------|
B|--------------------------|


CHORUS (X2)
G|-----------|
D|-----------|
A|3----------|
E|---1--5--3-|
B|-----------|

LINK
G|-----------|
D|-----------|
A|3----------|
E|---1--5--3-|
B|-----------|

G|-----------|
D|-----------|
A|-----------|
E|0--1--5--3-|
B|-----------|

BRIDGE
G|------------------|
D|------------------|
A|0--------3--13/15-|
E|---0--1-----------|
B|------------------|
Guitar Tab Creator is intended to store guitar tab created through the tool. It currently does not support in-line text editing. Any text you place in here will be lost. If you need to comment on your tab, please use the "Tab Notes" section located below.