God is Able [A] - Hillsong United

INTRO
G|----------------|----------------|----------------|----------------|
D|----------------|----------------|----------------|----------------|
A|----------------|----------------|----------------|----------------|
E|5---------------|0---------------|2---------------|----------------|
B|----------------|----------------|----------------|3---------------|


VERSE 1
God is able, He Will never fail
G|----------------|----------------|----------------|----------------|
D|----------------|----------------|----------------|----------------|
A|----------------|----------------|----------------|----------------|
E|5---------------|0---------------|2---------------|----------------|
B|----------------|----------------|----------------|3---------------|

Greater than all we see
G|----------------|----------------|----------------|----------------|
D|----------------|----------------|----------------|----------------|
A|----------------|----------------|----------------|----------------|
E|5---------------|0---------------|2---------------|0---------------|
B|----------------|----------------|-------3--------|----------------|


CHORUS
Lifted up, He defeated the grave
G|----------------|----------------|----------------|----------------|
D|----------------|----------------|----------------|----------------|
A|----------------|----------------|----------------|----------------|
E|5---------------|0---------------|2---------------|----------------|
B|----------------|----------------|----------------|3---------------|

In His name, we overcome
G|----------------|----------------|----------------|----------------|
D|----------------|----------------|----------------|----------------|
A|----------------|----------------|----------------|----------------|
E|5---------------|0---------------|2-------0-------|----------------|
B|----------------|----------------|----------------|3---------------|


FILL
G|----------------|----------------|----------------|----------------|
D|----------------|----------------|----------------|----------------|
A|----------------|----------------|----------------|----------------|
E|5---------------|0---------------|2---------------|----------------|
B|----------------|----------------|----------------|3---------------|


VERSE 2
God is with us
G|----------------|----------------|----------------|----------------|
D|----------------|----------------|----------------|----------------|
A|----------------|----------------|----------------|----------------|
E|5---------------|0---------------|2---------------|----------------|
B|----------------|----------------|----------------|3---------------|

Far above all we know
G|----------------|----------------|----------------|----------------|
D|----------------|----------------|----------------|----------------|
A|----------------|----------------|----------------|----------------|
E|5---------------|0---------------|2---------------|0---------------|
B|----------------|----------------|--------3-------|----------------|


CHORUS
Lifted up, He defeated the grave
G|----------------|----------------|----------------|----------------|
D|----------------|----------------|----------------|----------------|
A|----------------|----------------|----------------|----------------|
E|5---------------|0---------------|2---------------|----------------|
B|----------------|----------------|----------------|3---------------|

In His name, we overcome
G|----------------|----------------|----------------|----------------|
D|----------------|----------------|----------------|----------------|
A|----------------|----------------|----------------|----------------|
E|5---------------|0---------------|2-------0-------|----------------|
B|----------------|----------------|----------------|3---------------|


INSTRUMENTAL
G|----------------|----------------|----------------|----------------|
D|----------------|----------------|----------------|----------------|
A|----------------|----------------|----------------|----------------|
E|5---------------|0---------------|2-------0-------|----------------|
B|----------------|----------------|----------------|3---------------|


BRIDGE
God is with us, He will go before
G|----------------|----------------|----------------|----------------|
D|----------------|----------------|----------------|----------------|
A|----------------|----------------|----------------|----------------|
E|5---------------|0---------------|2-------0-------|----------------|
B|----------------|----------------|----------------|3---------------|

God is for us, He has open arms
G|----------------|----------------|----------------|----------------|
D|----------------|----------------|----------------|----------------|
A|----------------|----------------|----------------|----------------|
E|5---------------|0---------------|2-------0-------|----------------|
B|----------------|----------------|----------------|3---------------|


CHORUS x2
Lifted up, He defeated the grave
G|----------------|----------------|----------------|----------------|
D|----------------|----------------|----------------|----------------|
A|----------------|----------------|----------------|----------------|
E|5---------------|0---------------|2---------------|----------------|
B|----------------|----------------|----------------|3---------------|

In His name, we overcome
G|----------------|----------------|----------------|----------------|
D|----------------|----------------|----------------|----------------|
A|----------------|----------------|----------------|----------------|
E|5---------------|0---------------|2-------0-------|----------------|
B|----------------|----------------|----------------|3---------------|


OUTRO
For our Lord our God is able
G|----------------|----------------|----------------|----------------|
D|----------------|----------------|----------------|----------------|
A|----------------|----------------|----------------|----------------|
E|2-----2---------|0-----0---------|----------------|----------------|
B|----------------|----------------|3---------------|3---------------|

G|----------------|----------------|----------------|----------------|
D|----------------|----------------|----------------|----------------|
A|----------------|----------------|----------------|----------------|
E|2-----2---------|0-----0---------|----------------|----------------|
B|----------------|----------------|3---------------|3---------------|

G|----------------|----------------|----------------|----------------|
D|----------------|----------------|----------------|----------------|
A|----------------|----------------|5---------------|5---------------|
E|2-----2---------|0-----0---------|----------------|----------------|
B|----------------|----------------|----------------|----------------|
Guitar Tab Creator is intended to store guitar tab created through the tool. It currently does not support in-line text editing. Any text you place in here will be lost. If you need to comment on your tab, please use the "Tab Notes" section located below.