God is Able [B] - Hillsong United

INTRO
G|----------------|----------------|----------------|----------------|
D|----------------|----------------|----------------|----------------|
A|----------------|----------------|----------------|----------------|
E|7---------------|2---------------|4---------------|----------------|
B|----------------|----------------|----------------|5---------------|


VERSE 1
God is able, He Will never fail
G|----------------|----------------|----------------|----------------|
D|----------------|----------------|----------------|----------------|
A|----------------|----------------|----------------|----------------|
E|7---------------|2---------------|4---------------|----------------|
B|----------------|----------------|----------------|5---------------|

Greater than all we see
G|----------------|----------------|----------------|----------------|
D|----------------|----------------|----------------|----------------|
A|----------------|----------------|----------------|----------------|
E|7---------------|2---------------|4---------------|2---------------|
B|----------------|----------------|-------5--------|----------------|


CHORUS
Lifted up, He defeated the grave
G|----------------|----------------|----------------|----------------|
D|----------------|----------------|----------------|----------------|
A|----------------|----------------|----------------|----------------|
E|7---------------|2---------------|4---------------|----------------|
B|----------------|----------------|----------------|5---------------|

In His name, we overcome
G|----------------|----------------|----------------|----------------|
D|----------------|----------------|----------------|----------------|
A|----------------|----------------|----------------|----------------|
E|7---------------|2---------------|4-------2-------|----------------|
B|----------------|----------------|----------------|5---------------|


FILL
G|----------------|----------------|----------------|----------------|
D|----------------|----------------|----------------|----------------|
A|----------------|----------------|----------------|----------------|
E|7---------------|2---------------|4---------------|----------------|
B|----------------|----------------|----------------|5---------------|


VERSE 2
God is with us
G|----------------|----------------|----------------|----------------|
D|----------------|----------------|----------------|----------------|
A|----------------|----------------|----------------|----------------|
E|7---------------|2---------------|4---------------|----------------|
B|----------------|----------------|----------------|5---------------|

Far above all we know
G|----------------|----------------|----------------|----------------|
D|----------------|----------------|----------------|----------------|
A|----------------|----------------|----------------|----------------|
E|7---------------|2---------------|4---------------|2---------------|
B|----------------|----------------|--------5-------|----------------|


CHORUS
Lifted up, He defeated the grave
G|----------------|----------------|----------------|----------------|
D|----------------|----------------|----------------|----------------|
A|----------------|----------------|----------------|----------------|
E|7---------------|2---------------|4---------------|----------------|
B|----------------|----------------|----------------|5---------------|

In His name, we overcome
G|----------------|----------------|----------------|----------------|
D|----------------|----------------|----------------|----------------|
A|----------------|----------------|----------------|----------------|
E|7---------------|2---------------|4-------2-------|----------------|
B|----------------|----------------|----------------|5---------------|


INSTRUMENTAL
G|----------------|----------------|----------------|----------------|
D|----------------|----------------|----------------|----------------|
A|----------------|----------------|----------------|----------------|
E|7---------------|2---------------|4-------2-------|----------------|
B|----------------|----------------|----------------|5---------------|


BRIDGE
God is with us, He will go before
G|----------------|----------------|----------------|----------------|
D|----------------|----------------|----------------|----------------|
A|----------------|----------------|----------------|----------------|
E|7---------------|2---------------|4-------2-------|----------------|
B|----------------|----------------|----------------|5---------------|

God is for us, He has open arms
G|----------------|----------------|----------------|----------------|
D|----------------|----------------|----------------|----------------|
A|----------------|----------------|----------------|----------------|
E|7---------------|2---------------|4-------2-------|----------------|
B|----------------|----------------|----------------|5---------------|


CHORUS x2
Lifted up, He defeated the grave
G|----------------|----------------|----------------|----------------|
D|----------------|----------------|----------------|----------------|
A|----------------|----------------|----------------|----------------|
E|7---------------|2---------------|4---------------|----------------|
B|----------------|----------------|----------------|5---------------|

In His name, we overcome
G|----------------|----------------|----------------|----------------|
D|----------------|----------------|----------------|----------------|
A|----------------|----------------|----------------|----------------|
E|7---------------|2---------------|4-------2-------|----------------|
B|----------------|----------------|----------------|5---------------|


OUTRO
For our Lord our God is able
G|----------------|----------------|----------------|----------------|
D|----------------|----------------|----------------|----------------|
A|----------------|----------------|----------------|----------------|
E|4-----4---------|2-----2---------|----------------|----------------|
B|----------------|----------------|5---------------|5---------------|

G|----------------|----------------|----------------|----------------|
D|----------------|----------------|----------------|----------------|
A|----------------|----------------|----------------|----------------|
E|4-----4---------|2-----2---------|----------------|----------------|
B|----------------|----------------|5---------------|5---------------|

G|----------------|----------------|----------------|----------------|
D|----------------|----------------|----------------|----------------|
A|----------------|----------------|7---------------|7---------------|
E|4---------------|2----2----------|----------------|----------------|
B|----------------|----------------|----------------|----------------|
Guitar Tab Creator is intended to store guitar tab created through the tool. It currently does not support in-line text editing. Any text you place in here will be lost. If you need to comment on your tab, please use the "Tab Notes" section located below.