Center [E] - Matt Redman

INTRO + CHORUS + VERSE
G|---------|
D|---------|
A|--7-6----|
E|-------5-|
B|---------|

G|---------|--------|
D|---------|9-7-6-7-|
A|--7-6----|--------|
E|-------5-|--------|
B|---------|--------|

G|---------|--------|
D|---------|7--6--4-|
A|--7-6----|--------|
E|-------5-|--------|
B|---------|--------|

You hold everything together
G|-------|
D|-------|
A|-------|
E|--5--7-|
B|-------|
Guitar Tab Creator is intended to store guitar tab created through the tool. It currently does not support in-line text editing. Any text you place in here will be lost. If you need to comment on your tab, please use the "Tab Notes" section located below.