All We Need [G] - Charlie Hall

INTRO
Rich or poor, God I want you more
G|X---------------|----------------|----------------|----------------|
D|X---------------|----------------|----------------|----------------|
A|X---------------|----------------|----------------|----------------|
E|----------------|----------------|----------------|------------10s3|
B|X---------------|----------------|----------------|----------------|

You can have all my hands can hold
G|----------------|----------------|----------------|----------------|
D|----------------|----------------|----------------|----------------|
A|----------------|----------------|----------------|----------------|
E|3---------------|2---------------|0---------------|----------------|
B|----------------|----------------|----------------|1---------------|


CHORUS
Cause we, have all we need is you
G|----------------|----------------|----------------|----------------|
D|----------------|----------------|----------------|----------------|
A|----------------|5---------------|7---------------|3---------------|
E|3---------------|----------------|----------------|----------------|
B|----------------|----------------|----------------|----------------|


VERSE 1
Rich or poor
G|----------------|----------------|---------2------|----5-4-2-------|
D|----------------|----------------|-------2--------|--5-------------|
A|--------5-------|------5--9------|----------------|3---------------|
E|3-3---------3---|2-2-------------|0-0-------------|----------------|
B|----------------|----------------|----------------|----------------|

You can have all my hands can hold
G|----------------|----------------|----------------|----------------|
D|5---------------|4---------------|2---------------|----------------|
A|----------------|----------------|----------------|3---------------|
E|----------------|----------------|----------------|----------------|
B|----------------|----------------|----------------|----------------|


CHORUS 2
Cause we, have all we need in You
G|----------------|----------------|----------------|----------------|
D|----------------|----------------|----------------|----------------|
A|----------------|5---------------|7---------------|3-------10------|
E|3---------------|----------------|----------------|----------------|
B|----------------|----------------|----------------|----------------|

G|----------------|----------------|----------------|----------------|
D|----------------|----------------|----------------|----------------|
A|----------------|5---------------|7---------------|5---------------|
E|3---------------|----------------|----------------|----------------|
B|----------------|----------------|----------------|----------------|


BASS SOLO
G|---------------------------|----------------------|------------------5-7-5|
D|--5-7-5--------------------|-------------------7--|--5-7-5-------5-7------|
A|--------7-5-7-5------------|-----5-7-------5-9---9|--------7-5-7----------|
E|5---------------7-5-7-5-3-5|0-00-----0-000--------|5----------------------|
B|---------------------------|----------------------|-----------------------|

G|-------------------------|---------------------------|----------------------|
D|----------------7-9-7----|--5-7-5--------------------|-------------------7--|
A|-----5-7--------------7-5|--------7-5-7-5------------|-----5-7-------5-9---9|
E|0-00-----0-000-----------|5---------------7-5-7-5-3-5|0-00-----0-000--------|
B|-------------------------|---------------------------|----------------------|

G|----------------|----------------|----------------|----------------|
D|----------------|----------------|----------------|----------------|
A|3-3-3-3-3-3-3-3-|3-3-3-3-3-3-3-3-|3-3-3-3-3-3-3-3-|3-3-3-3-3-3-3-3-|
E|----------------|----------------|----------------|----------------|
B|----------------|----------------|----------------|----------------|


CHORUS 3
We, have all we need in You
G|x---------------|----------------|----------------|--5-5-5-5-5-4-2-|
D|x---------------|-7-7-5-5-4-4-2-2|-9-9-7-7-5-5-4-4|----------------|
A|x---------------|5---------------|7---------------|3---------------|
E|x---------------|----------------|----------------|----------------|
B|x---------------|----------------|----------------|----------------|

G|----------------|----------------|----------------|--5-5-5-5-5-4-2-|
D|----------------|-7-7-5-5-4-4-2-2|-9-9-7-7-5-5-4-4|----------------|
A|-5-5-3-3-2-2-0-0|5---------------|7---------------|5---------------|
E|3---------------|----------------|----------------|----------------|
B|----------------|----------------|----------------|----------------|

G|----------------|----------------|----------------|--5-5-5-5-5-4-2-|
D|----------------|-7-7-5-5-4-4-2-2|-9-9-7-7-5-5-4-4|----------------|
A|-5-5-3-3-2-2-0-0|5---------------|7---------------|5---------------|
E|3---------------|----------------|----------------|----------------|
B|----------------|----------------|----------------|----------------|

G|----------------|----------------|----------------|--5-5-5-5-5-4-2-|
D|----------------|-7-7-5-5-4-4-2-2|-9-9-7-7-5-5-4-4|----------------|
A|-5-5-3-3-2-2-0-0|5---------------|7---------------|5---------------|
E|3---------------|----------------|----------------|----------------|
B|----------------|----------------|----------------|----------------|


Guitar Tab Creator is intended to store guitar tab created through the tool. It currently does not support in-line text editing. Any text you place in here will be lost. If you need to comment on your tab, please use the "Tab Notes" section located below.